» » »

Soul To Squeeze Bass tabs (ver.1)

Artists:  A B C D E F G H I J K L M N O P Q R S T U V W X Y Z # 

Soul To Squeeze Bass tabs (ver.1)

Red Hot Chili Peppers
Rating:
0/5 (0 votes)

Hard to play? Try these video lessons and learn fast.
                This is my first tab ever so go easy on it. It took me about 2 weeks to make and learn it and I think that it’s about 99% perfect, but if you notice any incorrect parts then I’ll be happy to hear your corrections. I’m not sure how Flea tunes his bass, so I left mine at; E,A,D and G. It sounds fine like that, so ENJOY!

^ Pull Up

Intro:
G|-14-14----14-----14-16-14-------------------|
D|---------14----16--------------------------------|
A|---------------------------------^14-^14--------|
E|----------------------------------------------------|

 |------------------------------------------|
 |------------------------------------------|
 |-0-0-0-0-0-0-0-0--0-0-0-0-0-0-0-|
 |------------------------------------------|


 Verse:                          Soft
 |------------------------------------------------------------------------|
 |--------------------0--2-3-----5/8-----------------------------------|
 |----------3-3--2-3----------1-------5-5---5-8---8----------------|
 |-1-1--3h5-------------------------------5-----6---8\---3-6--p5\-|

 |--------------------------------3-3-3-3-|
 |--------------------0--2-3----3---------|
 |----------3-3--2-3----------1-----------|
 |-1-1--3h5-------------------------------|
 
 |--------------------------------------|
 |--------------------------------------|
 |-5-5---5-8---8--------------------|
 |-----5-----6---8-8-8\---3-6----\-|
     
    "I’ve got a...."
 |------------------------------3-3-3----------------------------------|
 |--------------------0--2-3-------------------------------------------|
 |----------3-3--2-3----------1-------5-5---5-8---8---------------|
 |-1-1--3h5-------------------------------5-----6---8\---3-6--p5\-|
  
 |--------------------------------3-3-3-3-|
 |--------------------0--2-3----3---------|
 |----------3-3--2-3----------1-----------|
 |-1-1--3h5-------------------------------|
 
 
 |------------------------------------------------|
 |------------------------------------------------|
 |-5-5---5-8---8---10-----------8-----------|
 |-----5-----6---8----8-6--8h10----10--6\-|

 |------------------------------3-3-3-3---------------------------------|
 |--------------------0--2-3------------------------------------ --------|
 |----------3-3--2-3----------1---------5-5---5-8---8---------------|
 |-1-1--3h5---------------------------------5-----6---8\---3-6--p5\-|

	                           Soft
 |--------------------------------------------------------------------|
 |--------------------0--2-3-----5/8-8----------------------------|
 |----------3-3--2-3----------1---------5-5---5-8---8----------|
 |-1-1--3h5---------------------------------5-----6---8\---3-6-|
 
 
 Chorus:
 |----------------------------------------------------------------|
 |---7--8-10-----7-------5------------------------------------|
 |-8----------------8------5--5-5--7-8--------------10---8-|
 |-----------8--------------------------6--6---8h10----8----|

 |------------------------------------------------------|
 |---7--8-10----7-7h8p7---5----------------------|
 |-8-------------------8---5--5-5-5-5-7-8---------|
 |-----------8----------------------------5-5-5-6\---|
  
 
 Verse 2:                        		              Soft
 |-----------------------------------------------------------------------|
 |--------------------0--2-3-----5/8-8-8-----------------------------|
 |----------3-3--2-3----------1-----------5-5---5-8---8------------|
 |-1-1--3h5-----------------------------------5-----6---8\---3-6-6\|
 
                                 Soft
 |--------------------------------------------|
 |--------------------0--2-3-----5/8-8-8-|
 |----------3-3--2-3----------1-----------|
 |-1-1--3h5-------------------------------|

 |--------------------------------------------------|
 |--------------------------------------------------|
 |-5-5---5-8---8---10----------8---------------|
 |-----5-----6---8----8-6-8h10----10-8-6\--|


 Chorus 2:
 |---------------------------------------------------------------------|
 |---7--8-10-----7-------5-----------------------------------------|
 |-8----------------8------5--5-5--7-8------------------10--8---|
 |-----------8--------------------------6-6-6--6---8h10----------|
 
 |--------------------------------------------------------------|
 |---7--8-10----10-8-7-------------------------------------|
 |-8------------------10\--5-5-5-5-5-5-7-8---------------|
 |-----------8------------------------------5-5-5-6-6-6\----|
 
 
 Verse 3: Guitar Solo
 |-----------------------------3-3-3-3----------------------------------------|
 |--------------------0--2-3---------------------------------------------------|
 |----------3-3--2-3---------1---------5-5---5-8---8----------------------|
 |-1-1--3h5--------------------------------5-----6---8-8-8\---3-6--p5\--|
   
 |-------------------------------------------------------------------------------|
 |--------------------0--2-3---5/8-8-8---------------------------------------|
 |----------3-3--2-3---------1---------5-5---5-8---8-----------------------|
 |-1-1--3h5--------------------------------5-----6---8--8-8-8-8-8-8-8--|
 
 Bridge:
 |----7--10--/12-------5-----5---5------7--10--/10-------5-----5---5-----|
 |--------8--/10---5h7---5h7---7------------8--/12---5h7---5h7---7----|
 |-5---------------------------------5--------------------------------------------|
 |---------------------------------------------------------------------------------|
   




 |----7--10--/12-------5-----5---5------7--10--/10--------------|
 |--------8--/10---5h7---5h7---7------------8--/12--------------|
 |-5---------------------------------5---------------------------------|
 |---------------------------------------------------5-5-5-6-6\------|
   s  p   s		 s   p s   p s p	 s  p   s	     
 
 
 

Verse 4:                        Soft
 |---------------------------------------------------------------------|
 |--------------------0--2-3-----5/8-8-8---------------------------|
 |----------3-3--2-3----------1----------5-5---5-8---8-----------|
 |-1-1--3h5----------------------------------5-----6---8\---3-6\-|

 |--------------------------------3-3-3-3-|
 |--------------------0--2-3----3---------|
 |----------3-3--2-3----------1-----------|
 |-1-1--3h5-------------------------------|
 
 |------------------------------------------------|
 |-------------------------------------------------|
 |-5-5---5-8---8---10-----------8------------|
 |-----5-----6---8----8-6--8h10----10-8-6-|

 |------------------------------------------------------------------------|
 |--------------------0--2-3-----5/8-8---------------------------------|
 |----------3-3--2-3----------1--------5-5---5-8---8-----------3---|
 |-1-1--3h5--------------------------------5-----6---8\---3-6\---3-|

 |-----------------------------------------------------------------------|
 |--------------------0--2-3-----5/8----------------------------------|
 |----------3-3--2-3----------1-------5-5---5-8---8----------------|
 |-1-1--3h5-------------------------------5-----6---8-8-8\---3-6/-|

 
 Chorus 3:
 |---------------------------------------------------------------------|
 |---7--8-10----7-7-8-7------------------7------------------------|
 |-8-------------------8-10\--5-5-5-7h8-----------------10-x-8-|
 |-----------8----------------------------6-6-6-6--8h10-----------|

 |---------------10/12--10----------------------------|
 |---7---8---10----------------------7-8-10-8-7----|
 |-8---8---8------------------7-8-10------------10-|
 |--------------------------8---------------------------|
 
 |---------------------------------------|
 |---------------------------------------|
 |-5-5-5-5-5-5-7-8-----------------|
 |-----------------5-5-5-6--6-6-6--|

 |---------------10/12--10--------------------------------|
 |---7---8---10----------------------7-8/10-7h8-x-----|
 |-8---8---8------------------7-8-10--------------10\---|
 |--------------------------8--------------------------------|

 |----------------------------------------------|
 |--------------7-------------------------------|
 |-5--5-5-5-7h8-------------------10---8-|
 |-----------------6--6-6-6--8h10----8----|

 |------------10/12-10------------------------------------|
 |---7-7-8-10-------------10-12-10--8-10-8--7-8-7-|
 |-8---------------------------------------------------------|
 |----------------------8------------------------------------|
  
 |-----------------------------------------|
 |-----------------------------------------|
 |-5-5-5-5-5-5-7-8--------------------|
 |-----------------5-5-5-6\---(1)-|
            
Hard to play? Try these video lessons and learn fast. | Correct




comments powered by Disqus
↑ Back to top | Tablatures and chords are parodies/interpretations of the original songs. You may use it for private study, scholarship, research or language learning purposes only