» » »

Red Hot Chili Peppers, Purple Stain Tabs (ver.3)

Artists:  A B C D E F G H I J K L M N O P Q R S T U V W X Y Z # 

Purple Stain Tabs (ver.3)

Red Hot Chili Peppers Tabs
Rating:
0/5 (0 votes)
Purple Stain lessons Tabs too difficult? Try these video lessons and learn fast
                Red Hot Chili Peppers
Purple Stain


Verse
e------------------------
B------------------------
G------------------------
D------------5-5---5-5---
A------------------------
E----(12/)---------------


Bridge
e----------------
B----------------
G---------------- 
D------5--7--7---
A---7------------
E----------------


Chorus
e-----------8--8---|-------------
B-----------8--8---|-------------
G------------------|---5---------
D-----5--7---------|------5--7---
A--7---------------|-------------
E------------------|-------------


Interlude
e------------------------------------
B---------------8/-------------------
G---------------7/------------------- 
D--5------------6/-----------5-------     
A----7-7-7-5-7-—7/---5-7-7-7---7-7---
E------------------------------------


End Solo (play notes many times and very fast)
E------|------|------|------|------|------|------|------|
B--12--|--11--|--12--|--11--|------|------|------|------|
G--12--|--11--|--12--|--11--|--99--|--77--|--55--|--77--|
D------|------|------|------|------|------|------|------|
A------|------|------|------|------|------|------|------|
E------|------|------|------|------|------|------|------|

E------|----------|------|----------|------|------------|
B--12--|--11--14--|--12--|--15--17--|--12--|--12-14-15--|
G--12--|--11--14--|--12--|--15--16--|--12--|--12-14-15--|
D------|----------|------|----------|------|------------|
A------|----------|------|----------|------|------------|
E------|----------|------|----------|------|------------|

E------|------------------------------------------------|
B--17--|--16h17--16h17--16h17--16h17--16h17--16h17--17--|
G--16--|--16-----16-----16-----16-----16-----16-----16--|
D------|--------------------------------------------17--|
A------|------------------------------------------------|
E------|------------------------------------------------|
            
Submit corrections

comments powered by Disqus
↑ Back to top | Red Hot Chili Peppers Tabs for Purple Stain. Lyrics for acoustic guitar and electric guitar. Tablatures and chords are parodies/interpretations of the original songs. You may use it for private study, scholarship, research or language learning purposes only