» » »

Purple Stain Tabs (ver.2)

Artists:  A B C D E F G H I J K L M N O P Q R S T U V W X Y Z # 

Purple Stain Tabs (ver.2)

Red Hot Chili Peppers
Rating:
0/5 (0 votes)

Hard to play? Try these video lessons and learn fast.
                Verse
e---------------------------------
B---------------------------------
G---------------------------------
D-14\-----5-5---5-5---------------
A--x---x--------------------------
E-12\--x--------------------------

Fill-Riff

e------------------
B------------------
G------------------	4x
D------5-7-7-------
A---7--------------
E------------------

Pre-Chorus

	 A7#9
e----------8--8-----------8--8-----------8--8-----------
B----------8--8-----------8--8-----------8--8-----------
G----------x--------------x--------------x-----5--------
D-----5-7--7---------5-7--7---------5-7--7--------5--7-- repeat
A--7--------------7--------------7----------------------
E-------------------------------------------------------


Chorus

		  E7#9
e---------------------
B-------------------8-
G-------------------7-
D-------------------6-
A-----------5--7----7-
E-3--3-5/7-------0----

e----------------------
B----------------------
G----------------------
D-----------------7/9--
A----------5--7--------
E-3--3-5/7------0------

e---------------------
B-------------------8-
G-------------------7-
D-------------------6-
A-----------5--7----7-
E-3--3-5/7-------0----

e------------------------
B------------------------
G------------------------
D--------------------7/9-
A----------5--7----------
E-3--3-5/7-------0---5/7-

e---------------------
B-------------------8-
G-------------------7-
D-------------------6-
A-----------5--7----7-
E-3--3-5/7-------0----

e----------------------
B----------------------
G----------------------
D-----------------7/9--
A----------5--7--------
E-3--3-5/7------0------


Outro (strum the following chords)
you'll hear when the chords change

e-15---14---15---14---12---10---8--10---
B-12---11---12---11----8----7---5---7---
G-12---11---12---11----9----7---5---7---
D-12------------------------------------
A---------------------------------------
E---------------------------------------

e-15---14---17---15---18---19---15--17--18------
B-12---11---14---12---15---17---12--14--15------
G-12---11---14---12---15---16---12--14--15------
D---------------------12------------------------
A-----------------------------------------------
E-----------------------------------------------

e--19--------19-------|-----------------
B--17--17b18r17---17--|-----------------
G--16--16b17r16---16--|-----------------
D-----------------14--|------5---4------
A---------------------|--7--------------
E---------------------|-----------------
            
Hard to play? Try these video lessons and learn fast. | Correct




comments powered by Disqus
↑ Back to top | Tablatures and chords are parodies/interpretations of the original songs. You may use it for private study, scholarship, research or language learning purposes only