» » »

Red Hot Chili Peppers, Pretty Little Ditty Bass tabs (ver.1)

Artists:  A B C D E F G H I J K L M N O P Q R S T U V W X Y Z # 

Pretty Little Ditty Bass tabs (ver.1)

Red Hot Chili Peppers Tabs
Rating:
0/5 (0 votes)
Pretty Little Ditty  lessons Tabs too difficult? Try these video lessons and learn fast
                (1)
This is a corrected version of Martin Peters version. I do use some 
of his parts.

s= slap
p= pop
h= hammer
Standard tuning

riff1

:--------10h12---------10h12-12-10-------------10h12p10h12-------10h12-12-10
:-----12------------12---------------x------12-----------------12-----------
:---------------------------------------------------------------------------
:10-x----------10-x----------------x---10-x----------------10-x-------------

riff2

:----------------
:-----10----10---
:--10----10----10
:8---------------

riff3

:--17-----16----14-----14-------17-----17-------19----19-----
:----14-----14-----14-----14------17-----17-------19----19---
:0------0------0-------0-----15------15----15-17----17-----17
:------------------------------------------------------------

:--17-----16----14-----14-----14----14----
:----14-----14----14-----14-----15----15--
:0------0------0-----0------15----15----15
:-----------------------------------------

riff4

:--6---7---9---7---6---9----11----12----11----9----11----12----14---
:---7---7---7---7---7---10----10----10----10---10----12----12----12-
:0---0---0---0---0---0----0-----0-----0-----0----0-----0-----0-----0
:-------------------------------------------------------------------

:12----11----11----12----14----12----11-----
:--12----12----12----12----12----12----12---
:----0-----0-----0-----0-----0-----0-----0--
:-------------------------------------------

riff5

:-
:-
:0
:-
            

comments powered by Disqus
↑ Back to top | Red Hot Chili Peppers Bass for Pretty Little Ditty. Lyrics for acoustic guitar and electric guitar. Tablatures and chords are parodies/interpretations of the original songs. You may use it for private study, scholarship, research or language learning purposes only