» » »

Red Hot Chili Peppers, Pretty Little Ditty Bass tabs (ver.2)

Artists:  A B C D E F G H I J K L M N O P Q R S T U V W X Y Z # 

Pretty Little Ditty Bass tabs (ver.2)

Red Hot Chili Peppers Tabs
 Rating:
4/5 (4 votes)
Pretty Little Ditty  lessons Tabs too difficult? Try these video lessons and learn fast
                (2)
Tuning:EADG

Verse

Fig1
|------10--10h12-----10-10h12-12-10------10-12-10h12p10p12----10-10h12-12-10--|
|-----------------------------------------------------------------------------|
|-----------------------------------------------------------------------------|
|-x-10-----------10-----------------x-10-------------------10-----------------|
  s s  p   p     s   p  p     p  p  s s  p  p  p            s p  p     p  p   


Middle bit

|--------------------------|
|----------10-------10-----|
|----10-10----10-10----10--|
|-8------------------------|

the two 10s together are played really quickly

play this until the verse comes back in, then repeat fig1.

then play:

|---17-----16------14-----14-----14-------|
|------14-----14------14-----14-----14----|
|-0-------0------0-------0------0------0--|
|-----------------------------------------|

|----17-------17-------17------|----19-------19-------19------|
|-------17-------17------------|-------19-------19------------|
|-15-------15-------15----15---|-17-------17-------17----17---|
|------------------------------|------------------------------|

repeat this bit, i think its three times

it's best to play these bits like a barre chord.

Finally, the outro goes:

|---6---6h7--9---7---6-|---9---9h11--12---11---9--|----11---11h12-14---12---11--11h12--14---12---11\6--|
|----------------------|--------------------------|----------------------------------------------------|
|-0---0--------0---0---|-0---0----------0----0----|--0----0----------0----0----0----------0----0-------|
|----------------------|--------------------------|----------------------------------------------------|

repeat this several times and then finish on:

|--6--|
|--7--|  play as a chord
|--0--|
|-----|

and let it ring
            
Submit corrections

comments powered by Disqus
↑ Back to top | Red Hot Chili Peppers Bass for Pretty Little Ditty. Lyrics for acoustic guitar and electric guitar. Tablatures and chords are parodies/interpretations of the original songs. You may use it for private study, scholarship, research or language learning purposes only