» » »

Parallel Universe Tabs (ver.3)

Artists:  A B C D E F G H I J K L M N O P Q R S T U V W X Y Z # 

Parallel Universe Tabs (ver.3)

Red Hot Chili Peppers
Rating:
0/5 (0 votes)

Hard to play? Try these video lessons and learn fast.
                This song is pretty much standard tuning. This is my first tab so if it is wrong let me know. This is the way I play it in my band. It sounds right. 

INTRO/VERSE:
Palm the beginning notes, and pick as many times necessary as in til the note changes 
e ----------------------------------------/ -----------------------
B ----------------------------------------\ ---14--15--16--17—played as lib
G -------------------10---12--------------/ -----------------------
D -----–13---12------------------10---9---\ -----------------------
A ----------------------------------------/ -----------------------
E ----------------------------------------\ -----------------------

CHORUS: Note: the F is played really quick then it is slid into the next note
e ---3-----1----6-----6-----5-------------------------------------------------------
B ---3-----1----6-----6-----5-------------------------------------------------------
G ---5-----1----6-----8-----5-------------------------------------------------------
D ---5-----3----4-----8-----3-------------------------------------------------------
A ---3-----3----4-----6-----3-------------------------------------------------------
E ---3-----1----6-----6-----5-------------------------------------------------------


PLAY WITH BASS SOLO:
e  ---------------------------------------
B ----------------------------------------
G ----------------------------------------
D ---13---10------------------------------
A --------------10------------------------
E ----------------------------------------

That is it I think but the solo is really adding what you want its up to you. Thanks bye!!!!!!
            
Hard to play? Try these video lessons and learn fast. | Correct




comments powered by Disqus
↑ Back to top | Tablatures and chords are parodies/interpretations of the original songs. You may use it for private study, scholarship, research or language learning purposes only