» » »

Parallel Universe Tabs (ver.2)

Artists:  A B C D E F G H I J K L M N O P Q R S T U V W X Y Z # 

Parallel Universe Tabs (ver.2)

Red Hot Chili Peppers
Rating:
0/5 (0 votes)

Hard to play? Try these video lessons and learn fast.
                Verse (Repeat as many times as necessary) 
e----------------------------------------------------------
B----------------------------------------------------------
G-------------10----12-------------------------------------
D--13---12--------------10----9----------------------------
A----------------------------------------------------------
E----------------------------------------------------------

Ending of verse (Repeat as many times as necessary)
e----------------------------------------------------------
B-------------------------------------12---13--------------
G-------------10----12-------------------------------------
D--13---12--------------10----9----------------------------
A----------------------------------------------------------
E----------------------------------------------------------

Chorus
e----------------------------------------------------------
B----------------------------------------------------------
G--555555----------8---------------------------------------
D—-555555—-5—-6----8-------555555555-----------------------
A--333333--5--6----6-------555555555-----------------------
E----------3--4------------333333333-----------------------

What the guitar does for bass solo
e----88/-|-------------------------------------------------
B----88/-|-------------------------------------------------
G--------|-------------------------------------------------
D—-—-—---|----13-13-13-13-8-8-8-8--------------------------
A--------|------------------------10-10-10-10--------------
E--------|-------------------------------------------------
Solo
To hard to find out so just make your own.

This song is so *** tight, hope this tab helped you out.  Rate this good or bad I don’t care.  I’m gunna go play some Parallel Universe!! 
Love, RHCPmadguitarist389
            
Hard to play? Try these video lessons and learn fast. | Correct




comments powered by Disqus
↑ Back to top | Tablatures and chords are parodies/interpretations of the original songs. You may use it for private study, scholarship, research or language learning purposes only