>
 >
Parallel Universe 1

Parallel Universe 1 Guitar Tabs

Red Hot Chili Peppers - Parallel Universe 1 chords, tabs, tablatures, lyrics

Guitar lessons | Add/correct | Request | Top 50 tabs Artists:  A B C D E F G H I J K L M N O P Q R S T U V W X Y Z 0-9

Parallel Universe 1 Guitar Tabs – Red Hot Chili Peppers

CD, Sheet music, Poster

Do you like Parallel Universe 1? Share with your friends now
ChordsTabsTabs v2Tabs v3
Verse (Repeat as many times as necessary) 
e----------------------------------------------------------
B----------------------------------------------------------
G-------------10----12-------------------------------------
D--13---12--------------10----9----------------------------
A----------------------------------------------------------
E----------------------------------------------------------

Ending of verse (Repeat as many times as necessary)
e----------------------------------------------------------
B-------------------------------------12---13--------------
G-------------10----12-------------------------------------
D--13---12--------------10----9----------------------------
A----------------------------------------------------------
E----------------------------------------------------------

Chorus
e----------------------------------------------------------
B----------------------------------------------------------
G--555555----------8---------------------------------------
D-555555-5-6----8-------555555555-----------------------
A--333333--5--6----6-------555555555-----------------------
E----------3--4------------333333333-----------------------

What the guitar does for bass solo
e----88/-|-------------------------------------------------
B----88/-|-------------------------------------------------
G--------|-------------------------------------------------
D-----|----13-13-13-13-8-8-8-8--------------------------
A--------|------------------------10-10-10-10--------------
E--------|-------------------------------------------------
Solo
To hard to find out so just make your own.

This song is so *** tight, hope this tab helped you out.  Rate this good or bad I dont care.  Im gunna go play some Parallel Universe!! 
Love, RHCPmadguitarist389





Comments


Popular Red Hot Chili Peppers tabs & chords
Fight Like A Brave 2 Bass Tabs
Californication 4 Chords
Fight Like A Brave Chords
Funky Monks Chords
Blood Sugar Sex Magik 1 Tabs
Did I Let You Know Intro Tabs
Fortune  Faded 1 Tabs
Hump De Bump 1 Tabs
Search And Destroy 1 Tabs
What Is Soul? 2 Tabs


Song lyrics



↑ Back to top | Tablatures and chords are parodies/interpretations of the original songs. You may use it for private study, scholarship, research or language learning purposes only
© 2014 AZChords.com Contact us | Privacy policy | DMCA | Add/correct tabs | Request tabs | Top 50 tabs