>
 >
Out Of Range 1

Out Of Range 1 Bass Tabs

Red Hot Chili Peppers - Out Of Range 1 chords, tabs, tablatures, lyrics

Guitar lessons | Add/correct | Request | Top 50 tabs Artists:  A B C D E F G H I J K L M N O P Q R S T U V W X Y Z 0-9

Out Of Range 1 Bass Tabs – Red Hot Chili Peppers

CD, Sheet music, Poster

Do you like Out Of Range 1? Share with your friends now
Bass TabsBass Tabs v2Chords
Track Out Of Range



Part 1.
G-------------------------10/12-10-9-------------------|
D------14---------14------------------12--10-9-10------|
A--12------12-12------12-------------------------------|
E------------------------------------------------------|


G------------------------10/14-12-10-------------------|
D------14---------14------------------12-10-9-10-------|
A--12------12-12------12-------------------------------|
E------------------------------------------------------|


Part2.
G------------------------------------------------------|
D------------------------------------------------------|
A--10-----10-10--------12-12-12-12----12---------------|
E------10--------10-12-------------12-----12-----------|X2

Part3.
G------------------------------|
D------------------------------|
A--5---3-----------------------|
E----------3-3-3-3-3-3-3-3-----|X2 then


G---------------------------------------------------
D-----------------------------3-3-3-3-3-3-3-3-------         
A-5-5-5-5-5-5-3-3-3-3-3-3-3-3-----------------------
E---------------------------------------------------then back to
Part 3.
then verse(Part 1.)

There is an instrumental part half-way through the song where
flea varies the verse( Part1.) Here are some of the variations
he uses.

G---------------------------14-12-10-9---------------|
D------14---------14--------------------10-12-10-9---|
A--12------12-12-------12----------------------------|
E----------------------------------------------------|


G----------------------------14-12-----12--10----------------|
D------14--------14------10---------12-----10-9-9-10---------|
A--12-----12-12------12--------------------------------------|
E------------------------------------------------------------|


G------------------------14-13-12--10---------------------------|
D-----14--------14--------------------9-12-10-9-10-9\\\\\////---|
A--12-----12-12------12-----------------------------------------|
E---------------------------------------------------------------|

Enjoy





Comments


Popular Red Hot Chili Peppers tabs & chords
Brandy Bass Tabs
Emit Remmus 1 Bass Tabs
Hump De Bump Bass Tabs
Quick Jam Bass Tabs
Dani Caifornia Drum Tabs
Did I Let You Know 2 Tabs
Funky Monks 3 Tabs
Get On Top 2 Tabs
My Friends Full Tabs
Stone Cold Bush 2 Tabs


Song lyrics



↑ Back to top | Tablatures and chords are parodies/interpretations of the original songs. You may use it for private study, scholarship, research or language learning purposes only
© 2014 AZChords.com Contact us | Privacy policy | DMCA | Add/correct tabs | Request tabs | Top 50 tabs