>
 >
Out Of Range

Out Of Range Bass Tabs

Red Hot Chili Peppers - Out Of Range chords, tabs, tablatures, lyrics

Guitar lessons | Add/correct | Request | Top 50 tabs Artists:  A B C D E F G H I J K L M N O P Q R S T U V W X Y Z 0-9

Out Of Range Bass Tabs – Red Hot Chili Peppers

CD, Sheet music, Poster

Do you like Out Of Range? Share with your friends now
Bass TabsBass Tabs v2Chords
Out of Range - Bass
(as found on one of the Zephyr Song singles)
Red Hot Chili Peppers

Intro
G|-19p17-16-------------------------------------19p17-16---------------------------------------|
D|----------19p17-16-------------------------------------19p17-16------------------------------|
A|-------------------19h17-16-------------------------------------19p17-16---------------------|
E|----------------------------19p17-16--0-0-0------------------------------19p17-16--0ring-----|


Verse 1
G|---------------------------------------------------------------------------------------------|
D|----14--------14-----15-14-12--10-12-10-------14--------14-----15-14-12----------------------|
A|-12----12--12----12------------------------12----12--12----12-------------15-14-12-----------|
E|---------------------------------------------------------------------------------------------|

G|---------------------------------------------------------------------------------------------|
D|---------------------------------------------------------------------------------------------|
A|-10------10-------12-12-12--------------10-------10-------12-12-12---------------------------|
E|---10-12----10-12----------12-12-12--------10-12----10-12-----------12ring-------------------|

G|---------------------------------------------------------------------------------------------|
D|----14--------14-----15-14-12--10-12-10-------14--------14-----15-14-12----------------------|
A|-12----12--12----12------------------------12----12--12----12-------------15-14-12-----------|
E|---------------------------------------------------------------------------------------------|

G|---------------------------------------------------------------------------------------------|
D|---------------------------------------------------------------------------------------------|
A|-10------10-------12-12-12--------------10-------10----------12-12-12------------------------|
E|---10-12----10-12----------12-12-12--------10-12----10h12p10-----------12ring----------------|


Chorus
G|---------------------------------------------------------------------------------------------|
D|-12-10-----------------------12-10---------------------10--12----10--------------------------|
A|-------10--10-10--10-10--10----------10--10-10--10-10----------------------------------------|
E|---------------------------------------------------------------------------------------------|

G|---------------------------------------------------------------------------------------------|
D|----------------------------12-10---------------------10--12----10---------------------------|
A|-7-7--10--10-10--10-10--10----------10--10-10--10-10----------------10-----------------------|
E|---------------------------------------------------------------------------------------------|


Verse 2
G|---------------------------------------------------------------------------------------------|
D|----14--------14-----15-14-12--10-12-10----------14--------14-----15/17-15-14----------------|
A|-12----12--12----12---------------------------12----12--12----12----------------17-15-12-----|
E|---------------------------------------------------------------------------------------------|

G|---------------------------------------------------------------------------------------------|
D|---------------------------------------------------------------------------------------------|
A|-10------10-------12-12-12--------------10-------10----------12-12-12------------------------|
E|---10-12----10-12----------12-12-12--------10-12----10h12p10-----------12ring----------------|

G|---------------------------------------------------------------------------------------------|
D|----14--------14-----15-14-12--10-12-10-------14--------14-----15/19-15-14-------------------|
A|-12----12--12----12------------------------12----12--12----12----------------17-15-14-12-----|
E|---------------------------------------------------------------------------------------------|

G|---------------------------------------------------------------------------------------------|
D|---------------------------------------------------------------------------------------------|
A|-10------10-------12-12-12--------------10-------10-------12-12-12---------------------------|
E|---10-12----10-12----------12-12-12--------10-12----10-12-----------12ring-------------------|


Chorus
G|---------------------------------------------------------------------------------------------|
D|-12-10-----------------------12-10---------------------10--12----10--------------------------|
A|-------10--10-10--10-10--10----------10--10-10--10-10----------------------------------------|
E|---------------------------------------------------------------------------------------------|

G|---------------------------------------------------------------------------------------------|
D|----------------------------12-10---------------------10--12----10---------------------------|
A|-7-7--10--10-10--10-10--10----------10--10-10--10-10----------------10-----------------------|
E|---------------------------------------------------------------------------------------------|


no Vocals (Verse with Variations)
G|---------------------------------------------------------------------------------------------|
D|----14--------14-----15-14-12--10-12-12-10------14--------14-----15/17-15-14-----------------|
A|-12----12--12----12--------------------------12----12--12----12---------------17-15-14-14-12-|
E|---------------------------------------------------------------------------------------------|

G|---------------------------------------------------------------------------------------------|
D|---------------------------------------------------------------------------------------------|
A|-10------10----------12-12-12--------------10-------10-------12-12-12------------------------|
E|---10-12----10-12-10----------12-10-12-12----10-12----10-12-----------12ring-----------------|

G|---------------------------------------------------------------------------------------------|
D|----14--------14-----15-14-12--10-12-12-10------14--------14-----15/17-15-14-----------------|
A|-12----12--12----12--------------------------12----12--12----12---------------17-15-14-12----|
E|---------------------------------------------------------------------------------------------|

G|---------------------------------------------------------------------------------------------|
D|---------------------------------------------------------------------------------------------|
A|-10------10-------12-12-12--------------10-------10-12h14p12-10---12-12-12-------------------|
E|---10-12----10-12----------12-12-12-------10-12----------------12----------12ring------------|


Vocals again
G|---------------------------------------------------------------------------------------------|
D|---------------------------------------------------------------------------------------------|
A|---------------10-12-10-----------------------------10-12-10---------------------------------|
E|-8-8-8-8-8-8-8-----------10-12-10--8-8-8-8-8-8-8-8-----------10-12-10------------------------|

G|----14---------14-----------12---------12----------------------------------------------------|
D|-12----12---12----12-----10----10---10----10--------10-------10------12-12-12-10-------------|
A|--------------------------------------------------8----8---8----8----------------------------|
E|---------------------------------------------------------------------------------------------|


Outro (2x Chorus)
G|---------------------------------------------------------------------------------------------|
D|-12-10-----------------------12-10---------------------10--12----10--------------------------|
A|-------10--10-10--10-10--10----------10--10-10--10-10----------------------------------------|
E|---------------------------------------------------------------------------------------------|

G|---------------------------------------------------------------------------------------------|
D|----------------------------12-10---------------------10--12----10---------------------------|
A|-7-7--10--10-10--10-10--10----------10--10-10--10-10-----------------------------------------|
E|---------------------------------------------------------------------------------------------|

G|---------------------------------------------------------------------------------------------|
D|----------------------------12-10---------------------10--12----10---------------------------|
A|-7-7--10--10-10--10-10--10----------10--10-10--10-10-----------------------------------------|
E|---------------------------------------------------------------------------------------------|

G|---------------------------------------------------------------------------------------------|
D|----------------------------12-10---------------------10--12----10---------------------------|
A|-7-7--10--10-10--10-10--10----------10--10-10--10-10----------------10--0ring----------------|
E|---------------------------------------------------------------------------------------------|

that's it





Comments


Popular Red Hot Chili Peppers tabs & chords
Bullet Proof Bass Tabs
Love Trilogy 1 Bass Tabs
What It Is Bass Tabs
Cabron 1 Chords
Cmon Girl Chords
Sir Psycho Sexy Outro Chords
My Friends Complete Tabs
Parallel Universe 1 Tabs
Scar Tissue Tabs
Brandy Ukulele


Song lyrics



↑ Back to top | Tablatures and chords are parodies/interpretations of the original songs. You may use it for private study, scholarship, research or language learning purposes only
© 2014 AZChords.com Contact us | Privacy policy | DMCA | Add/correct tabs | Request tabs | Top 50 tabs