» » »

Red Hot Chili Peppers, Love Roller Coaster Tabs (ver.3)

Artists:  A B C D E F G H I J K L M N O P Q R S T U V W X Y Z # 

Love Roller Coaster Tabs (ver.3)

Red Hot Chili Peppers Tabs
 Rating:
4/5 (4 votes)
Love Roller Coaster lessons Tabs too difficult? Try these video lessons and learn fast
                "(2)
Love Rollercoaster

Chords

C   - x x 10 9 8 8 
Bb  - x x 8  7 6 6 
A   - x x 7  6 5 5    
G5  - 3 5 5  x x x 
G#5 - 6 4 4  x x x 
A5  - 5 7 7  x x x 

INTRO
e|--8--8--8--6-6-6--5-5--5-5-5-5-5--6-6-6--8--8--
B|--8--8--8--6-6-6--5-5--5-5-5-5-5--6-6-6--8--8--
G|--9--9--9--7-7-7--6-6--6-6-6-6-6--7-7-7--9--9--
D|--10-10-10-8-8-8--7-7--7-7-7-7-7--8-8-8--10-10-
A|-----------------------------------------------
E|-----------------------------------------------


Chorus (...Your love is like a rollercoaster...)
e|----------------------------------------------
B|----------------------------------------------
G|----------------------------------------------
D|--x-5-x-5-x-5-x-5-x-5-5-5-5-x-5-x-5-6-6-7-7/--
A|--x-5-x-5-x-5-x-5-x-5-5-5-5-x-5-x-5-6-6-7-7/--
E|--x-3-x-3-x-3-x-3-x-3-3-3-3-x-3-x-3-4-4-5-5/--
"            
Submit corrections

comments powered by Disqus
↑ Back to top | Red Hot Chili Peppers Tabs for Love Roller Coaster. Lyrics for acoustic guitar and electric guitar. Tablatures and chords are parodies/interpretations of the original songs. You may use it for private study, scholarship, research or language learning purposes only