» » »

Love Roller Coaster Tabs (ver.2)

Artists:  A B C D E F G H I J K L M N O P Q R S T U V W X Y Z # 

Love Roller Coaster Tabs (ver.2)

Red Hot Chili Peppers
Rating:
0/5 (0 votes)

Tabs too difficult? Try these video lessons and learn fast.
                "(1)
Riff:
     B#    B#      A# A#3A#      A    A3 A
E-+--8-----8----+--6--8--6----+--5----7--5--+-------------+
B-|--8-----8----|--6--6--6----|--5----5--5--|-------------|
G-|--9-----9----|--7--7--7----|--6----6--6--|-------------|
D-|-------------|-------------|-------------|-------------|
A-|-------------|-------------|-------------|-------------|
E-+-------------+-------------+-------------+-------------+
     A     A       A#    A#      B#   B#
E-+--5-----5----+--6-----6----+--8----8-----+-------------+
B-|--5-----5----|--6-----6----|--8----8-----|-------------|
G-|--6-----6----|--7-----7----|--9----9-----|-------------|
D-|-------------|-------------|-------------|-------------|
A-|-------------|-------------|-------------|-------------|
E-+-------------+-------------+-------------+-------------+<


Chorus is G

on the chorus, sounds more tha bass than the guitar

Bass

G---9---8---7-----7--8--9-pop all notes on this string
D------------------------
A-7--6---5------5--6--7--slap all notes on this string
E------------------------


sorry, thats all I know
"            
Tabs too difficult? Try these video lessons and learn fast.




comments powered by Disqus
↑ Back to top | Tablatures and chords are parodies/interpretations of the original songs. You may use it for private study, scholarship, research or language learning purposes only