» » »

Red Hot Chili Peppers, If You Want Me To Stay Bass tabs (ver.3)

Artists:  A B C D E F G H I J K L M N O P Q R S T U V W X Y Z # 

If You Want Me To Stay Bass tabs (ver.3)

Red Hot Chili Peppers Tabs
 Rating:
4/5 (4 votes)
If You Want Me To Stay lessons Tabs too difficult? Try these video lessons and learn fast
                If You Want Me to Stay
Red Hot Chili Peppers
Freaky Styley

G----------------------------------------------
D-------------------------------2-33333333-5555
A-------------------------2-333----------------
E---555-0-3-4-555-5-4-333----------------------

G----------------------------------------------
D-----9-8-77------------------------2-33333333-
A----------------------------2-333-------------
E-7-7---------555555--4333--------------------

G-----------------
D-5555-----9-8-77-
A-----------------
E------7-7--------

Same thing, all the way through.
            
Submit corrections

comments powered by Disqus
↑ Back to top | Red Hot Chili Peppers Bass for If You Want Me To Stay. Lyrics for acoustic guitar and electric guitar. Tablatures and chords are parodies/interpretations of the original songs. You may use it for private study, scholarship, research or language learning purposes only