» » »

Red Hot Chili Peppers, If You Want Me To Stay Bass tabs (ver.1)

Artists:  A B C D E F G H I J K L M N O P Q R S T U V W X Y Z # 

If You Want Me To Stay Bass tabs (ver.1)

Red Hot Chili Peppers Tabs
 Rating:
4/5 (4 votes)
If You Want Me To Stay lessons Tabs too difficult? Try these video lessons and learn fast
                

Tuning: (E,A,D,G)


Main Riff: 

There are alot of variations, but here
is the main riff.

G-|--------------------------|--------------------------|-
D-|--------------------------|-----------------------3--|-
A-|--------------------------|-----------6--4--4--4-----|-
E-|--6--6--6--6--6--6--6--5--|--4--4--4-----------------|-
     >     >     >     >        >     >     >     >

G-|--------------------------|--------------------------------|-
D-|--4--4--4--4--4--4--4--4--|--3--3--3--3--3--3--------------|-
A-|--------------------------|--------------------3--3--2--2--|-
E-|--------------------------|--------------------------------|-
     >     >     >     >        >     >     >     >     >



 = Accentuate the note, play it harder.
            
Submit corrections

comments powered by Disqus
↑ Back to top | Red Hot Chili Peppers Bass for If You Want Me To Stay. Lyrics for acoustic guitar and electric guitar. Tablatures and chords are parodies/interpretations of the original songs. You may use it for private study, scholarship, research or language learning purposes only