>
 >
Hump De Bump 3

Hump De Bump 3 Guitar Tabs

Red Hot Chili Peppers - Hump De Bump 3 chords, tabs, tablatures, lyrics

Guitar lessons | Add/correct | Request | Top 50 tabs Artists:  A B C D E F G H I J K L M N O P Q R S T U V W X Y Z 0-9

Hump De Bump 3 Guitar Tabs – Red Hot Chili Peppers

CD, Sheet music, Poster

Do you like Hump De Bump 3? Share with your friends now
Bass TabsBass Tabs v2Bass Tabs v3TabsTabs v2Tabs v3Tabs v4
Band: Red Hot Chili Peppers


Intro:
e--3~-3~-3~-3~-3~-3~-|
B--6~-6~-6~-6~-6~-6~-|
G--4~-4~-4~-4~-4~-4~-|
D--3~-3~-3~-3~-3~-3~-|
A--5~-5~-5~-5~-5~-5~-|
E--3~-3~-3~-3~-3~-3~-|


Verse Riff:
e-----------|-----------|--------|
B-----------|-----------|--------|
G--7-5---5--|--7-5---5--|-5-7----|
D------7----|------7----|--------|
A-----------|-----------|--------|
E-----------|-----------|--------|
Play this however many times you need to. Sometimes it sounds like you have to play some 
notes too but thats just Flea doing what he does!


Chorus part 1:
e-|---------------------------------|
B-|-X-X-7-X-X-6-X-X-7-X-X-6-X-X-6/7-|
G-|-X-X-5-X-X-4-X-X-5-X-X-4-X-X-4/5-|
D-|-X-X-7-X-X-6-X-X-7-X-X-6-X-X-6/7-|
A-|---------------------------------|
E-|---------------------------------|

Play this however many times you need then on the last time finish by strumming this chord:
e--8-|
B--7-|
G--5-|
D--7-|
A----|
E----|


Chorus Part 2:

e-8-88-8888--|-6-66-|-6666-|-5-5-|-3-3-|-6-6-|--8-|
B-6-66-6666--|-9-99-|-9999-|-8-8-|-6-6-|-9-9-|-11-|
G-5-55-5555--|-7-77-|-7777-|-6-6-|-4-4-|-7-7-|--9-|
D-7-77-7777--|-6-66-|-6666-|-5-5-|-3-3-|-6-6-|--8-|
A-5-55-5555--|-8-88-|-8888-|-7-7-|-5-5-|-8-8-|-10-|
E------------|-6-66-|-6666-|-5-5-|-3-3-|-6-6-|--8-|

(They are 10s and 11s, not 1s and 0s).

Ok that it!!
Here's the order...

Intro
Verse
Chorus pt. 1
Chorus pt. 2
Verse
Chorus pt. 1
Chorus pt. 2
(Weird jangly bit with no guitar)
Chorus pt. 1
Chorus pt. 2
Chorus pt. 2





Comments


Popular Red Hot Chili Peppers tabs & chords
Ethiopia Bass Tabs
Grand Pappy Du Plenty Bass Tabs
My Friends Chords
Dani Caifornia Drum Tabs
Californication 1 Tabs
Dont Forget Me Live 3 Tabs
Millionaires Against Hunger Tabs
Tear 2 Tabs
Under The Bridge 2 Tabs
Universally Speaking Tabs


Song lyrics



↑ Back to top | Tablatures and chords are parodies/interpretations of the original songs. You may use it for private study, scholarship, research or language learning purposes only
© 2014 AZChords.com Contact us | Privacy policy | DMCA | Add/correct tabs | Request tabs | Top 50 tabs