>
 >
Hump De Bump 2

Hump De Bump 2 Guitar Tabs

Red Hot Chili Peppers - Hump De Bump 2 chords, tabs, tablatures, lyrics

Guitar lessons | Add/correct | Request | Top 50 tabs Artists:  A B C D E F G H I J K L M N O P Q R S T U V W X Y Z 0-9

Hump De Bump 2 Guitar Tabs – Red Hot Chili Peppers

CD, Sheet music, Poster

Do you like Hump De Bump 2? Share with your friends now
Bass TabsBass Tabs v2Bass Tabs v3TabsTabs v2Tabs v3Tabs v4
-------------------------------------------------------------------------------
                             Red Hot Chili Peppers - Hump De Bump
-------------------------------------------------------------------------------
one of the new funky songs from stadium arcadium - comments are welcome

Standard Tuning

Intro
e|-------------------------------------------------------------------------------|
B|---6-- 6-- 6--6--6---6---------------------------------------------------------|
G|---5-- 5---5--5--5---5---------------------------------------------------------|
D|---4-- 4---4--4--4---4---------------------------------------------------------|
A|---5-- 5---5--5--5---5---------------------------------------------------------|
E|-------------------------------------------------------------------------------|

Verse
e|-----------------------------------------------------------------------------|
B|-----------------------------------------------------------------------------|
G|----7-5--5-x--7-5-5-x-5-7----------------------------------------------------|
D|-----------------------------------------------------------------------------|
A|-----------------------------------------------------------------------------|
E|-----------------------------------------------------------------------------|

Verse Fill

e|----------------|
B|-----6h8p6------|
G|----------------|


Pre-Chorus (Hump De Bump part) - with muting in between notes
e|-----x--x--- x--x---x-------------- x-----------------------------------------|
B|-----7--6--- 7--6---6h7----(x7)-----7-----7--7-7-7-7-7-7-7-7------------------|
G|-----5- 5--- 5--5---5-------------- 5-----7--7-7-7-7-7-7-7-7------------------|
D|-----x- x--- x--x---x-------------- x-----7--7-7-7-7-7-7-7-7------------------|
A|----------------------------------------  5--5-5-5-5-5-5-5-5------------------|
E|------------------------------------------------------------------------------|

Chorus (second time don't play after the *)

       D7#9       Bb7       A7         G7      Bb7                       C
e|----------1--1---------------------------------------------------------------|
B|--6--6----3--3---5--5---6---6------------------------------------------------|
G|- 5--5----1--1---6--6---4---7------------------------------- 5---------------|   (x2)
D|- 4--4----3--3---5--5---3---6-----------3--------------5h7--5----------------|
A|- 5--5----1--1---7--7---5---8----1--3h5---5-----3*-5h7-----------------------|
E|-----------------5--5---3--- ------------------------------------------------|


Bridge/Percussion Solo - strum Dm (x57765) and crescendo (soft to loud)

End on
e|--------|
B|----6---|
D|--- 5---|
G|------- |
A|------- |
E|--------|

Intro
Verse
Pre-Chorus
Chorus
Verse
Pre Chorus
Chorus
Bridge/Percussion Solo
Pre-Chorus
Chorus


| /  slide up
|   slide down
| h  hammer-on
| p  pull-off
| ~  vibrato
| +  harmonic
| x  Mute note





Comments


Popular Red Hot Chili Peppers tabs & chords
Cabron Bass Tabs
Cant Stop 4 Bass Tabs
Savior Bass Tabs
Subterranean Homesick Blues 2 Bass Tabs
Did I Let You Know Intro Tabs
Especially In Michigan Tabs
Get On Top 3 Tabs
Knock Me Down Tabs
Out In L.A. Tabs
Right On Time Tabs


Song lyrics



↑ Back to top | Tablatures and chords are parodies/interpretations of the original songs. You may use it for private study, scholarship, research or language learning purposes only
© 2014 AZChords.com Contact us | Privacy policy | DMCA | Add/correct tabs | Request tabs | Top 50 tabs