» » »

Hump De Bump Bass tabs (ver.3)

Artists:  A B C D E F G H I J K L M N O P Q R S T U V W X Y Z # 

Hump De Bump Bass tabs (ver.3)

Red Hot Chili Peppers
Rating:
0/5 (0 votes)

Hard to play? Try these video lessons and learn fast.
                


Notation legend:

    x   -> mute.
    \   -> slide up.     \   It can be after or before the note, like 1h3,
    /   -> slide down.    |  but if there's no enought space it can be 
    h   -> hammer on.     |  over or down, like G|-13-...
    p   -> pull off.     /                      D|--h-...
    ~   -> let ring.
    + + -> the rhythm of the song, generally 4x4. If there are 2 digits notes
           or there's no enough space, I lengthen it, 
           from (+   +   ...) to (+       +      ...) 
    |·------·| -> repeat this a number of times, for example |·3-3-3-3·| x4
                  repeats 3-3-3-3 four times.

Tuning: DADG

Intro:

  G
  +   +   +   +    +   +   +   +
G|----------------|----------------|
D|5-----5-----5---|--5-----5-------|
A|----------------|----------------|
D|----------------|----------------|

Verse 1:

  Dm
  +   +   +   +    +   +   +   +    +   +   +   +    +   +   +   +
G|----------------|----------------|----------------|----------------|
D|0-r---0-r-------|0-r---0-r-30----|0-r---0-r-------|0-r---0-r----03-|
A|----------------|-----------p----|----------------|----------03--h-|
D|0-r---0-r-------|0-r---0-r-------|0-r---0-r-------|0-r---0-r--h----|

  Dm
  +   +   +   +    +   +   +   +    +   +   +   +    +   +   +   +
G|----------------|----------------|----------------|----------50----|
D|0-r---0-r-------|0-r---0-r-30----|0-r---0-r-------|0-r---0-r--p-30-|
A|----------------|-----------p----|----------------|--------------p-|
D|0-r---0-r-------|0-r---0-r-------|0-r---0-r-------|0-r---0-r-------|

  Dm
  +   +   +   +    +   +   +   +    +   +   +   +    +   +   +   +
G|----------------|----------------|----------------|----------------|
D|0-r---0-r-------|0-r---0-r----30-|0-r---0-r-------|0-r---0-r-30-30-|
A|----------------|----------03--p-|----------------|-----------p--p-|
D|0-r---0-r-------|0-r---0-r--h----|0-r---0-r-------|0-r---0-r-0--0--|

Pre-Chorus 1:

  Dm
  +   +   +   +    +   +   +   +    +   +   +   +    +   +   +   +
G||----------------|----------4-5---|----------------|----------4-5-4-||
D|·0-r---0-r-------|0-r---0-r-------|0-r---0-r-------|0-r---0-r-------·|
A|·----------------|----------2-3---|----------------|----------2-3-2-·|
D||0-r---0-r-------|0-r---0-r-0-0---|0-r---0-r-------|0-r---0-r-0-0-0-|| x2

Chorus (replace 2nd time C. End 1 with C. End 2):
                                                      ___C. End 1____
                                                                     \
   Dm               Bb               A       G        Bb      C
   +   +   +   +    +   +   +   +    +   +   +   +    +   +   +   +
G||----75-5--------|----32020----0--|----------------|----------------||
D|·------7-75---5--|---------3--3---|----75------53--|------03------23·|
A|·5-----------8---|1---------------|------75------53|1---13--3---35--·|
D||----------------|----------------|7-------5-------|----------------|| x2

  ___________C. End 2____________
                                 \
  Bb              C
  +       +       +       +
G|----------------------75--------|
D|------------0-3---------765-----|
A|1---1---1-3-----3-----------8---|
D|--------------------------------|

Verse 2:

  Dm
  +   +   +   +    +   +   +   +    +   +   +   +    +   +   +   +
G|----------------|----------------|----------------|----------------|
D|------0-r-------|0-r---0-r----30-|0-r---0-r-------|0-r---0-r-30----|
A|5-r-------------|----------30--p-|----------------|-----------p-30-|
D|------0-r-------|0-r---0-r--p----|0-r---0-r-------|0-r---0-r-----p-|

  Dm
  +   +   +   +    +   +   +   +    +   +   +   +    +   +   +   +
G|----------------|----------------|----------------|----------------|
D|0-r---0-r-------|0-r---0-r-------|0-r---0-r-------|0-r---0-r--h----|
A|----------------|-----------p----|----------------|----------03----|
D|0-r---0-r-------|0-r---0-r-70----|0-r---0-r-------|0-r---0-r-------|

  Dm
  +   +   +   +    +   +   +   +    +   +   +   +    +   +   +   +
G|----------------|----------------|----------------|----------------|
D|0-r---0-r-------|0-r---0-r----30-|0-r---0-r-------|0-r---0-r-3-3-3-|
A|----------------|----------03--p-|----------------|----------------|
D|0-r---0-r-------|0-r---0-r--h----|0-r---0-r-------|0-r---0-r-3-3-3-|

Pre-Chorus 2:

  Dm
  +   +   +   +    +   +   +   +    +   +   +   +    +   +   +   +
G|----------------|----------4-5---|----------------|----------4-5-4-|
D|0-r---0-r-------|0-r---0-r-------|0-r---0-r-------|0-r---0-r-------|
A|----------------|----------2-3---|----------------|----------2-3-2-|
D|0-r---0-r-------|0-r---0-r-0-0---|0-r---0-r-------|0-r---0-r-0-0-0-|

  Dm
  +   +   +   +    +   +   +   +    +   +   +   +    +   +   +   +
G|----------4-5---|----------4-5-4-|----------4-5---|----------4-5-4-|
D|0-r---0-r-------|0-r---0-r-------|0-r---0-r-------|0-r---0-r-------|
A|----------2-3---|----------2-3-2-|----------2-3---|----------2-3-2-|
D|0-r---0-r-0-0---|0-r---0-r-0-0-0-|0-r---0-r-0-0---|0-r---0-r-0-0-0-|

Chorus &

  +   +   +   +
G|----------------|
D|----------------|
A|5-r-------------|
D|----------------|

Percussion part:

(2:21)

  C
  +   +   +   +    +   +   +   +    +   +   +   +    +   +   +   +
G|----------------|----------------|----------------|----------------|
D|----------------|----------------|----------------|----------------|
A|--------3--5----|--3-3-6-3--5----|--3-3-6-3--5----|--3-3-6-3--5----|
D|------0---------|0------0--------|0------0--------|0------0--------|

  C
  +   +   +   +    +   +   +   +    +   +   +   +    +   +   +   +
G|----------------|----------------|----------------|----------------|
D|----------------|----------------|----------------|----------------|
A|3-3-3-3-3--5----|3-3-3-6-3--5----|3-3-3-3-3--5----|3-3-3-0-3--5----|
D|---0---0--------|---0---0--------|---0---0--------|---0------------|

Pre-Chorus 3:

  Dm
  +   +   +   +    +   +   +   +    +   +   +   +    +   +   +   +
G|----------------|----------4-5---|----------------|----------4-5-4-|
D|0-r---0-r-------|0-r---0-r-------|0-r---0-r-------|0-r---0-r-------|
A|----------------|----------2-3---|----------------|----------2-3-2-|
D|0-r---0-r-------|0-r---0-r-0-0---|0-r---0-r-------|0-r---0-r-0-0-0-|

  Dm
  +   +   +   +    +   +   +   +    +   +   +   +    +   +   +   +
G|----------4-5---|----------4-5-4-|----------4-5---|----------5-5-5-|
D|0-r---0-r-------|0-r---0-r-------|0-r---0-r-------|0-r---0-r-------|
A|----------2-3---|----------2-3-2-|----------2-3---|----------3-3-3-|
D|0-r---0-r-0-0---|0-r---0-r-0-0-0-|0-r---0-r-0-0---|0-r---0-r-------|

Chorus (replace 4th time the C. End 1 with C. End 2):
                                                      ___C. End 1____
                                                                     \
   Dm               Bb               A       G        Bb      C
   +   +   +   +    +   +   +   +    +   +   +   +    +   +   +   +
G||----75-5--------|----32020----0--|----------------|----------------||
D|·------7-75---5--|---------3--3---|----75------53--|------03------23·|
A|·5-----------8---|1---------------|------75------53|1---13--3---35--·|
D||----------------|----------------|7-------5-------|----------------|| x4

  ___________C. End 2____________
                                 \
  Bb              C
  +       +       +       +
G|----------------------75--------|
D|------------0-3---------765-----|
A|1---1---1-3-----3-----------8---|
D|--------------------------------|

End with this:

  +   +   +   +
G|----------------|
D|----------------|
A|5-r-------------|
D|----------------|

     __   _      __      __      _____   _____   _____
    /  | / |    /  |    /  `\   / ___/  / __ /  (  __/
   /   |/  |   / /||   / /) /  //      / / //   \ \
  / /|   /||  / /^||  / /||   //___   / / //  ___) )
 / / |  / || / /  || / / ||  /    /  /  ^^/  /    / 
 ^^^^^^^^^^^^^^^^^^^^^^^^^^^^^^^^^^^^^^^^^^^^^^^^^
            
Hard to play? Try these video lessons and learn fast. | Correct




comments powered by Disqus
↑ Back to top | Tablatures and chords are parodies/interpretations of the original songs. You may use it for private study, scholarship, research or language learning purposes only