>
 >
Hey 2

Hey 2 Guitar Tabs

Red Hot Chili Peppers - Hey 2 chords, tabs, tablatures, lyrics

Guitar lessons | Add/correct | Request | Top 50 tabs Artists:  A B C D E F G H I J K L M N O P Q R S T U V W X Y Z 0-9

Hey 2 Guitar Tabs – Red Hot Chili Peppers

CD, Sheet music, Poster

Do you like Hey 2? Share with your friends now
Bass TabsTabsTabs v2Tabs v3
One of my most fav songs on stadium arcadium :)

please rate !


even though it looks hard, it really isn't just listen to the song while
looking at the tab and it'll be a lot easier

Bass Intro Transcribed for Guitar
--------------------------------------------------------------------------|
--------------------------------------------------------------------------|
--------------------------------------------------------------------------|
-5------5----5------5----5----6----5-----5---5---(5)---5---5---5---5--6---|
--------6-----------6----------------------------------6-------6----------|
-8-----------6-----------4----4----4-----6---8---(8)-------6-------4--4---|

--------------------------------------------------------------------------|
--------------------------------------------------------------------------|
--------------------------------------------------------------------------|
-5---6---5---5---5--------------------------------------------------------|
--------------------------------------------------------------------------|
-4---4---4---6---8--------------------------------------------------------|

Gtr.1

--------------------------------------------------------------------------|
------------------------------------------------------8-------------------|
-(8)----8--8--7-8----7-8--7-8--8--7-8--7-8--7-8--8----8---8-----7---------|
-(10)---10-10-8-10---8-10-8-10-10-8-10-8-10-8-10-10-------10----8-----8---|
----------------------------------------------------------------------10--|
--------------------------------------------------------------------------|

--------------------------------------------------------------------------|
--------------------------------------------------------------------------|
7/8-----------------------------------------------------------------------|
8/10----------------------------------------------------------------------|
--------------------------------------------------------------------------|
--------------------------------------------------------------------------|

x3

--------------------------------------------------------------------------|
------------------------------------------------------8--9--8-------------|
-(8)----8--8--7-8----7-8--7-8--8--7-8--7-8--7-8--8----8--8--8-------------|
-(10)---10-10-8-10---8-10-8-10-10-8-10-8-10-8-10-10-------------------8---|
----------------------------------------------------------------------10--|
--------------------------------------------------------------------------|

--------------------------------------------------------------------------|
--------------------------------------------------------------------------|
7/8-----------------------------------------------------------------------|
8/10----------------------------------------------------------------------|
--------------------------------------------------------------------------|
--------------------------------------------------------------------------|

--------------------------------------------------------------------------|
------------------------------------------------------8---9--11--9--8-----|
-(8)----8--8--7-8----7-8--7-8--8--7-8--7-8--7-8--8----8---8---8--8--8-----|
-(10)---10-10-8-10---8-10-8-10-10-8-10-8-10-8-10-10-----------------------|
--------------------------------------------------------------------------|
--------------------------------------------------------------------------|

Bridge                                                        hold bend
--------------------------------------------------------------------------|
--------------------------11----11/13~~~~~~-------------------------------|
-8~~~~-10b12-----10~~~~~-----12------------10b11r(10)----8~~~~--10b12-----|
--------------------------------------------------------------------------|
--------------------------------------------------------------------------|
--------------------------------------------------------------------------|

11------------------------------------------------------------------------|
--------------------------------------------------------------------------|
---10b12---(10)-----8~~~~-------------------------------------------------|
--------------------------------------------------------------------------|
--------------------------------------------------------------------------|
--------------------------------------------------------------------------|

--------------------------------------------------------------------------|
-----------------------------11---8---------------------------------------|
--(8)~~~~-------------------------10b12~~~~----------------------10b12r10-|
------------------------------------------------10p8----------------------|
--------------------------------------------------------------------------|

--------------------------------------------------------------------------|
--------------------------------------------------------------------------|
8/7----8~~~~~-----------(8)~~~-----10b12----10~~~-------------------------|
------------------------------------------------------12--8--8/10---------|
--------------------------------------------------------------------------|
--------------------------------------------------------------------------|

--------------------------------------------------------------------------|
-0----------------------------8-------------------------------------------|
-----8---------------------------8----------------------------------------|
---------10p8-----6---8/10----------10p8----------------------------------|
--------------------------------------------------------------------------|
--------------------------------------------------------------------------|

Interlude

--------------------------------------------------------------------------|
------------------------------------------------------8-------------------|
-(8)----8--8--7-8----7-8--7-8--8--7-8--7-8--7-8--8----8---8-----7---------|
-(10)---10-10-8-10---8-10-8-10-10-8-10-8-10-8-10-10-------10----8-----8---|
----------------------------------------------------------------------10--|
--------------------------------------------------------------------------|

--------------------------------------------------------------------------|
--------------------------------------------------------------------------|
7/8-----------------------------------------------------------------------|
8/10----------------------------------------------------------------------|
--------------------------------------------------------------------------|
--------------------------------------------------------------------------|

--------------------------------------------------------------------------|
------------------------------------------------------8--9--8-------------|
-(8)----8--8--7-8----7-8--7-8--8--7-8--7-8--7-8--8----8--8--8-------------|
-(10)---10-10-8-10---8-10-8-10-10-8-10-8-10-8-10-10-------------------8---|
----------------------------------------------------------------------10--|
--------------------------------------------------------------------------|

--------------------------------------------------------------------------|
--------------------------------------------------------------------------|
7/8-----------------------------------------------------------------------|
8/10----------------------------------------------------------------------|
--------------------------------------------------------------------------|
--------------------------------------------------------------------------|

Bridge x1
Except this time around, the last measure of the bridge goes like this

--------------------------------------------------------------------------|
--------8-----------------------------------------------------------------|
-8---8--8------8--8-------------------------------------------------------|
-8---8--8------8--8-------------------------------------------------------|
-6---6--6------6--6-------------------------------------------------------|
--------------------------------------------------------------------------|

Interlude b4 Solo.. Just pick around the chords marked to be easier
 *                        *                           *
-8-----------------------------------8------------------------------------|
-9-----9------------------9---11------------11--9-----8-------------------|
10------------10----------8---------------------8-----8------8------------|
10-------------------10--10--------------------10-----8---8-----8--8--8---|
-8--8-----8------8----------------8------8------8-------------------------|
--------------------------------------------------------------------------|
                                   *
--------------------------------------------------------------------------|
-8---9-----11--------9----8--------6-------------------6---8---9----8--6--|
-8------------------------8--------6-------6-----------6-------6----6--6--|
--------8-------8---------8--------6----6-----6--6--6--6-----6----6----6--|
--------------------------------------------------------------------------|
--------------------------------------------------------------------------|

--------------------------------------------------------------------------|
-4---6--4------4----4-----6------8---6---6--------------------------------|
-5---5--5------5--5-5-----x------x---x---x--------------------------------|
-6---6------------6-------8---8------8---8--------------------------------|
--------------------------------------------------------------------------|
--------------------------------------------------------------------------|
x4~

Guitar Solo(distortion&wah pedal)

-8~~~------8------------------8-----------------------8-------------------|
-11b13~~~-----11--8----11b13-----11--8---11b13--11~~~----11--8--11b13-----|
--------------------------------------------------------------------------|
--------------------------------------------------------------------------|
--------------------------------------------------------------------------|
--------------------------------------------------------------------------|

-11~~~--11/8-----8----8---------------------------------------------------|
--------------10---10----11b13---11--8-----8--11b13--11~~~-8------8~~~----|
----------------------------------------10--------------------10----------|
--------------------------------------------------------------------------|
--------------------------------------------------------------------------|
--------------------------------------------------------------------------|

--------------------------------------------------------------------------|
--------------------------------------------------------------------------|
---11p10--10p8--10--10p8---10---10b11r10p8----10-----10b11r10p8-----------|
--------------------------------------------------------------------------|
--------------------------------------------------------------------------|
--------------------------------------------------------------------------|

---------------------------------------------------------------------------|
---------------------------------------------------------------------------|
-10-10b11r10p8--10b11r10p8------8~~~-------------8--10b11--8----------8b10-|
----------------------------10---------10--8--10-------------10-8-10-------|
---------------------------------------------------------------------------|
---------------------------------------------------------------------------|

--------------------------------------------------------------------------|
------------------------------------------------------------11-13-13b16---|
--8~~~------------8b10---8------------8b10---8~~~~---10/12----------------|
--------10--8--10-----------10-8-10---------------------------------------|
--------------------------------------------------------------------------|
--------------------------------------------------------------------------|
                                graduallly release the bend
--------------------------13b15---13--13----13---13---13---13--13---------|
--13~~~--11-13--13-13p11-------------------------13-----------------------|
--------------------------------------------------------------------------|
--------------------------------------------------------------------------|
--------------------------------------------------------------------------|
--------------------------------------------------------------------------|

---13---13---13--11---13--13b15-----11b13r(11)~~~-------------------------|
---------------------------------------------------13--11--13-13~~~-------|
--------------------------------------------------------------------------|
--------------------------------------------------------------------------|
--------------------------------------------------------------------------|
--------------------------------------------------------------------------|

--------------------------------------------------------------------------|
--------------------------------------------------------------------------|
--11/10p8--10--10b11----10p8---------8/10~~~~-----------------------------|
------------------------------8-------------------------------------------|
--------------------------------------------------------------------------|
--------------------------------------------------------------------------|

Introx1


DONE!





Comments


Popular Red Hot Chili Peppers tabs & chords
Cmon Girl 2 Bass Tabs
Hump De Bump 2 Bass Tabs
The Righteous The Wicked 1 Bass Tabs
Walkabout 2 Bass Tabs
I Could Die For You Chords
By The Way Intro Tabs
Get On Top 1 Tabs
Get On Top 3 Tabs
Nevermind Tabs
Universally Speaking Tabs


Song lyrics



↑ Back to top | Tablatures and chords are parodies/interpretations of the original songs. You may use it for private study, scholarship, research or language learning purposes only
© 2014 AZChords.com Contact us | Privacy policy | DMCA | Add/correct tabs | Request tabs | Top 50 tabs