» » »

Red Hot Chili Peppers, Hey Tabs (ver.2)

Artists:  A B C D E F G H I J K L M N O P Q R S T U V W X Y Z # 

Hey Tabs (ver.2)

Red Hot Chili Peppers Tabs
Rating:
0/5 (0 votes)
Hey lessons Tabs too difficult? Try these video lessons and learn fast
                -----------------------------------------------------------------------------
                             HEY - Red Hot Chili Peppers
----------------------------------------------------------------------------

Tuning: Standard


Surprisingly good album from the Chili's. I'm more of a One Hot Minute man
myself ;-).


Intro/Verses

e|--------------------------------------------------------------------------|
B|--------------------------------------------------------------------------|
G|--/5~--5-5-3-5---5-5-3-5---5--3-5-5--8--5-3-0-----------------------------|
D|--/5~--5-5-3-5---5-5-3-5---5--3-5-5--8--5-3-0-----------------------------|
A|--------------------------------------------------------------------------|
E|--------------------------------------------------------------------------|


Fill 1 (1:18) (3:18)

e|-------------------------------------------------------------------------|
B|-----8------11-8~--------------------------------------------------------|
G|--8~---10~------------10-8-8--10/12--10p8--7-8~--------------------------|
D|-------------------------------------------------------------------------|
A|-------------------------------------------------------------------------|
E|-------------------------------------------------------------------------|

e|---------------------------------------11--------------------------------|
B|---8------11p8-11b13~~~~~------------------------------------------------|
G|-----10-------------------10-8-8-10/12----10-7-8~------------------------|
D|-------------------------------------------------------------------------|
A|-------------------------------------------------------------------------|
E|-------------------------------------------------------------------------|

etc - play throughout 2nd verse

other times just improvise using the scale (blues)


Chords for Outro (3:54) go C, G, F


Solo for ending - just improvise and Frusciante uses a wah-wah pedal with it. I'm just 
acoustic player so would just play around with the scales.

| /  slide up
|   slide down
| h  hammer-on
| p  pull-off
| ~  vibrato
| +  harmonic
| x  Mute note
=============================================================================
            

comments powered by Disqus
↑ Back to top | Red Hot Chili Peppers Tabs for Hey. Lyrics for acoustic guitar and electric guitar. Tablatures and chords are parodies/interpretations of the original songs. You may use it for private study, scholarship, research or language learning purposes only