» » »

Havana Affair Tabs (ver.2)

Artists:  A B C D E F G H I J K L M N O P Q R S T U V W X Y Z # 

Havana Affair Tabs (ver.2)

Red Hot Chili Peppers
Rating:
0/5 (0 votes)

Hard to play? Try these video lessons and learn fast.
                intro and main riff:(verse and chorus)
----------------------------------------------------------
-----------3------------------------------------------------
--------4-----4-----------------------------------------------
-----4-----------4-------------5------------4--------------------
--2------------------2------5-----5------4-----4-------------------
-------------------------3------------2-----------------------

then brige: play 4x
-7/9--9-9--9-9----12---14--------------------------------------------------
-7/9--9-9--9-9----12---14---------------------------------------------------
-5/7--7-7--7-7----10---12---------------------------------------------------

then back to main riff, 

intro
verse
chorus
bridge
verse
chorus
bridge

very easy, finger in the nose !! 
            
Hard to play? Try these video lessons and learn fast. | Correct




comments powered by Disqus
↑ Back to top | Tablatures and chords are parodies/interpretations of the original songs. You may use it for private study, scholarship, research or language learning purposes only