>
 >
Havana Affair

Havana Affair Bass Tabs

Red Hot Chili Peppers - Havana Affair chords, tabs, tablatures, lyrics

Guitar lessons | Add/correct | Request | Top 50 tabs Artists:  A B C D E F G H I J K L M N O P Q R S T U V W X Y Z 0-9

Havana Affair Bass Tabs – Red Hot Chili Peppers

CD, Sheet music, Poster

Do you like Havana Affair? Share with your friends now
Bass TabsBass Tabs v2ChordsChords v2TabsTabs v2Tabs v3Tabs v4Tabs v5
-------------------------------------------------------------------------------
			     Havana Affair - Red Hot Chili Peppers
-------------------------------------------------------------------------------


Tuning: Standard

intro
G|----------14---|------------14------|
D|-9---9--12-----|-9---9--12----12----|
A|------------12-|-----------------12-|
E|---------------|--------------------|

G|--------------------|-------------------|--------------------|----------|
D|--------------------|-------------------|--------------------|----------|
A|-2--2-4-5----5--5-4-|-------------------|-2---2245--(5)/7--5-|----------|
E|----------3---------|-5-555-7--22222--5-|----------3---------|-3--5-2-2-|

                                                            
G|-----------|------------------|------------|--------------|
D|-----------|-----5-7--7-5-----|-9--9-------|-9--9----12---|
A|-----------|---5----------5---|------10--9-|------10----9-|
E|-3--3-2--2-|-3--------------2-|------------|--------------|


G|--------------------|-------------------|--------------------|----------|
D|--------------------|-------------------|--------------------|----------|
A|-2--2-4-5----5--5-4-|-------------------|-2----4-5--(5)/7-754|----------|
E|----------3---------|-5-555-7--22222--5-|----------3---------|-5--5-3-2-|

G|-----------|------------------|-------------|---12--12-------|
D|-----------|-----5-7--7-5-----|-9--9----12--|-9---9-----12---|
A|-----------|---5----------5---|------10---9-|---------10---9-|
E|-3--3-2--2-|-3--------------2-|-------------|----------------|

switch to 5/4 (repeat 4x)
G|---------------|
D|---------------|
A|-----------5-7-|
E|-5--777-77-----|

G|--------------------|-------------------|--------------------|------|
D|--------------------|-------------------|--------------------|------|
A|-2--2-4-5----5--5-4-|-------------------|-2----4-5--(5)/7-754|-4-5--|
E|----------3---------|-5--56-7--2--22--5-|----------3---------|----2-|

G|------------------|------------|-------------|---121212-----------|
D|-----5-7--7-5-----|----5-------|-9--9----12--|-9--------9----12---|
A|---5----------5---|--5-----5---|------10---9-|-------------10---9-|
E|-3--------------2-|-3--------3-|-------------|--------------------|


switch to 5/4 (repeat 4x)
G|---------------|
D|---------------|
A|-----------5-7-| hold the last E (7) for three counts
E|-5--777-77-----|

G|--------------------|-------------------|------------------|--------|
D|--------------------|-------------------|------------------|--------|
A|-2--2-4-5----5--5-4-|---754-------------|-2----4-5-----5-54|--------|
E|----------3---------|-5----57--2--22--5-|----------3-------|-5--7-2-|


G|-------------|-------12--14--14-12------|
D|-------------|----12---------------12---|
A|-10--10-9--9-|-10---------------------9-|
E|-------------|--------------------------|

G|---121212-----------|---||
D|-9--------9----12---|---||
A|-------------10---9-|---||
E|--------------------|-7-||

| /  slide up
| \  slide down
| h  hammer-on
| p  pull-off
| ~  vibrato
| +  harmonic
| x  Mute note
===============================================================================





Comments


Popular Red Hot Chili Peppers tabs & chords
Breaking The Girl Bass Tabs
Brothers Cup 3 Bass Tabs
Buckle Down 3 Bass Tabs
What It Is Bass Tabs
Castles Made Of Sand Chords
Funny Face Chords
Death Of A Martian Intro Tabs
Did I Let You Know Intro Tabs
Dosed Intro 1 Tabs
Lovercall Tabs


Song lyrics



↑ Back to top | Tablatures and chords are parodies/interpretations of the original songs. You may use it for private study, scholarship, research or language learning purposes only
© 2014 AZChords.com Contact us | Privacy policy | DMCA | Add/correct tabs | Request tabs | Top 50 tabs