» » »

Red Hot Chili Peppers, Get Up And Jump Tabs (ver.3)

Artists:  A B C D E F G H I J K L M N O P Q R S T U V W X Y Z # 

Get Up And Jump Tabs (ver.3)

Red Hot Chili Peppers Tabs
 Rating:
4/5 (4 votes)
Get Up And Jump lessons Tabs too difficult? Try these video lessons and learn fast
                The guitar tabs for this song totally sucked, and the bass wasn't perfect either, so I 


Standard tuning:
Guitar: E A D G B e
Bass:   E A D G

x = Ghost note
S = Slap
P = Pop



Intro:

e|--9--9-9-x-9--9--9-9--x-9-9-9-9----9-9-9-9----------|
B|--7--7-7-x-7--7--7-7--x-7-7-7-7----7-7-7-7----------|
G|--7--7-7-x-7--7--7-7--x-7-7-7-7----7-7-7-7----------|
D|----------------------------------------------------|
A|----------------------------------------------------|
E|----------------------------------------------------|
 |
 |
G|-----------------------------------6-6-6-6----------|
D|--2-------------------------------------------------|
A|-----------------4--------5-------------------------|
E|-------0----3---------------------------------------|



e|--9--9-9-x-9--9--9-9--x-9-9-9-9----9-9-9-9-9-9-9-9--|
B|--7--7-7-x-7--7--7-7--x-7-7-7-7----7-7-7-7-7-7-7-7--|
G|--7--7-7-x-7--7--7-7--x-7-7-7-7----7-7-7-7-7-7-7-7--|
D|----------------------------------------------------|  x2
A|----------------------------------------------------|
E|----------------------------------------------------|
 |
 |
G|-----------------------------------6-6-6-6-6-6-6-6--|
D|--2-------------------------------------------------|
A|-----------------4--------5-5-----------------------|  x2
E|-------0----3---------------------------------------|



Verse 1:

e|----------------------------------------------------------------|
B|----------------------------------------------------------------|
G|--3-0---------------------0------3-0---------------------0------|
D|--------3---0-5-0-3-0-3-0---3----------3---0-5-0-3-0-3-0---3----|  x2
A|----------------------------------------------------------------|
E|----------------------------------------------------------------|
 |
 |
G|------------3---------3---3h4--------------3---------3---3h4----|
D|--------5---------5--------------------5---------5--------------|
A|----------------------------------------------------------------|  x2
E|--0-3-x-------x-x---x---x--------0-3-x-------x-x---x---x--------|
    S S S P   P S S P S P S P      S S S P   P S S P S P S P


e|----------------------------------------------------------------|
B|----------------------------------------------------------------|
G|--3-0---------------------0------3-0---------------------0------|
D|--------3---0-5-0-3-0-3-0---3----------3---0-5-0-3-0-3-0---3----|  x3
A|----------------------------------------------------------------|
E|----------------------------------------------------------------|
 |
 |
G|----------------------------------------------------------------|
D|--------5---3-----5---3---3h5----------5---3-----5---3---3h5----|
A|----------------------------------------------------------------|  x3
E|--0-3-x-------x-x---x---x--------0-3-x-------x-x---x---x--------|
    S S S P   P S S P S P S P      S S S P   P S S P S P S P


e|----------------------------------------------------------------|
B|----------------------------------------------------------------|
G|--3-0---------------------0------3-0---------------------0------|
D|--------3---0-5-0-3-0-3-0---3----------3---0-5-0-3-0-3-0---3----|  x1
A|----------------------------------------------------------------|
E|----------------------------------------------------------------|
 |
 |
G|------------3---------3---3h4--------------3---------3---3h4----|
D|--------5---------5--------------------5---------5--------------|
A|----------------------------------------------------------------|  x1
E|--0-3-x-------x-x---x---x--------0-3-x-------x-x---x---x--------|
    S S S P   P S S P S P S P      S S S P   P S S P S P S P


e|----------------------------------------------------------------|
B|----------------------------------------------------------------|
G|--3-0---------------------0------3-0---------------------0------|
D|--------3---0-5-0-3-0-3-0---3----------3---0-5-0-3-0-3-0---3----|  x2
A|----------------------------------------------------------------|
E|----------------------------------------------------------------|
 |
 |
G|----------------------------------------------------------------|
D|--------5---3-----5---3---3h5----------5---3-----5---3---3h5----|
A|----------------------------------------------------------------|  x2
E|--0-3-x-------x-x---x---x--------0-3-x-------x-x---x---x--------|
    S S S P   P S S P S P S P      S S S P   P S S P S P S P


e|----------------------------------------------------------------|
B|----------------------------------------------------------------|
G|--3-0---------------------0------3-0---------------------0------|
D|--------3---0-5-0-3-0-3-0---3----------3---0-5-0-3-0-3-0---3----|  x2
A|----------------------------------------------------------------|
E|----------------------------------------------------------------|
 |
 |
G|----------------------------------------------------------------|
D|--------5---3-----5---3---3h5----------5---3-----2---3---3h5----|
A|----------------------------------------------------------------|  x2
E|--0-3-x-------x-x---x---x--------0-3-x-------x-x---x---x--------|
    S S S P   P S S P S P S P      S S S P   P S S P S P S P


e|----------------------------------------------------------------|
B|----------------------------------------------------------------|
G|--3-0---------------------0------3-0---------------------0------|
D|--------3---0-5-0-3-0-3-0---3----------3---0-5-0-3-0-3-0---3----|  x2
A|----------------------------------------------------------------|
E|----------------------------------------------------------------|
 |
 |
G|----------------------------------------------------------------|
D|--------5---3-----5---3---3h5----------5---3-----5---3---3h5----|
A|----------------------------------------------------------------|  x2
E|--0-3-x-------x-x---x---x--------0-3-x-------x-x---x---x--------|
    S S S P   P S S P S P S P      S S S P   P S S P S P S P


e|----------------------------------------------------------------|
B|----------------------------------------------------------------|
G|--3-0---------------------0------3-0---------------------0------|
D|--------3---0-5-0-3-0-3-0---3----------3---0-5-0-3-0-3-0---3----|  x1
A|----------------------------------------------------------------|
E|----------------------------------------------------------------|
 |
 |
G|------------3---------3---3h4--------------3---------3---3h4----|
D|--------5---------5--------------------5---------5--------------|
A|----------------------------------------------------------------|  x1
E|--0-3-x-------x-x---x---x--------0-3-x-------x-x---x---x--------|
    S S S P   P S S P S P S P      S S S P   P S S P S P S P


e|----------------------------------------------------------------|
B|----------------------------------------------------------------|
G|--3-0---------------------0------3-0---------------------0------|
D|--------3---0-5-0-3-0-3-0---3----------3---0-5-0-3-0-3-0---3----|  x1
A|----------------------------------------------------------------|
E|----------------------------------------------------------------|
 |
 |
G|----------------------------------------------------------------|
D|--------5---3-----5---3---3h5----------5---3-----5---3---3h5----|
A|----------------------------------------------------------------|  x1
E|--0-3-x-------x-x---x---x--------0-3-x-------x-x---x---x--------|
    S S S P   P S S P S P S P      S S S P   P S S P S P S P


e|----------------------------------------------------------------|
B|----------------------------------------------------------------|
G|--3-0---------------------0------3-0---------------------0------|
D|--------3---0-5-0-3-0-3-0---3----------3---0-5-0-3-0-3-0---3----|  x1
A|----------------------------------------------------------------|
E|----------------------------------------------------------------|
 |
 |
G|----------------------------------------------------------------|
D|--------5---3-----5---3---3h5----------5---3-----5---3---3------|
A|----------------------------------------------------------------|  x1
E|--0-3-x-------x-x---x---x--------0-3-x-------x-x---x---x--------|
    S S S P   P S S P S P S P      S S S P   P S S P S P S P


Chorus 1:

e|----------------------------------------------------------|
B|----------------------------------------------------------|
G|----------------------------------------------------------|
D|-----------5-5-5-5---------------------5-5-5-5------------|
A|----------------------------------------------------------|
E|--5---------------------------5---------------------------|
 |
 |
G|----------------------------------------------------------|
D|-----------5-5-5-5---------------------5-5-5-5------------|
A|----------------------------------------------------------|
E|--5---------------------------5---------------------------|



e|----------------------------------------------------------|
B|----------------------------------------------------------|
G|----------------------------------------------------------|
D|-----------5-5-5-5---------------------5-5-5-5------------|
A|----------------------------------------------------------|
E|--5---------------------------5---------------------------|
 |
 |
G|------------------------------------------------7--7-5----|
D|-----------5-5-5-5--------------------5-5-5-5-------------|
A|----------------------------------------------------------|
E|--5---------------------------5---------------------------|
                                                  P P  P


e|----------------------------------------------------------|
B|----------------------------------------------------------|
G|----------------------------------------------------------|
D|-----------5-5-5-5---------------------5-5-5-5------------|
A|----------------------------------------------------------|
E|--5---------------------------5---------------------------|
 |
 |
G|----------------------------------------------------------|
D|-----------5-5-5-5---------------------5-5-5-5------------|
A|----------------------------------------------------------|
E|--5---------------------------5---------------------------|



e|----------------------------------------------------------|
B|----------------------------------------------------------|
G|----------------------------------------------------------|
D|-----------5-5-5-5---------------------5-5-5-5------------|
A|----------------------------------------------------------|
E|--5---------------------------5---------------------------|
 |
 |
G|----------------------------------------------------------|
D|-----------5-5-5-5---------------------5-5-5-5------------|
A|----------------------------------------------------------|
E|--5---------------------------5---------------------------|



Verse 2:

e|----------------------------------------------------------------|
B|----------------------------------------------------------------|
G|--3-0---------------------0------3-0---------------------0------|
D|--------3---0-5-0-3-0-3-0---3----------3---0-5-0-3-0-3-0---3----|  x2
A|----------------------------------------------------------------|
E|----------------------------------------------------------------|
 |
 |
G|------------3---------3---3h4--------------3---------3---3h4----|
D|--------5---------5--------------------5---------5--------------|
A|----------------------------------------------------------------|  x2
E|--0-3-x-------x-x---x---x--------0-3-x-------x-x---x---x--------|
    S S S P   P S S P S P S P      S S S P   P S S P S P S P


e|----------------------------------------------------------------|
B|----------------------------------------------------------------|
G|--3-0---------------------0------3-0---------------------0------|
D|--------3---0-5-0-3-0-3-0---3----------3---0-5-0-3-0-3-0---3----|  x5
A|----------------------------------------------------------------|
E|----------------------------------------------------------------|
 |
 |
G|----------------------------------------------------------------|
D|--------5---3-----5---3---3h5----------5---3-----5---3---3h5----|
A|----------------------------------------------------------------|  x5
E|--0-3-x-------x-x---x---x--------0-3-x-------x-x---x---x--------|
    S S S P   P S S P S P S P      S S S P   P S S P S P S P


e|----------------------------------------------------------------|
B|----------------------------------------------------------------|
G|--3-0---------------------0------3-0---------------------0------|
D|--------3---0-5-0-3-0-3-0---3----------3---0-5-0-3-0-3-0---3----|  x1
A|----------------------------------------------------------------|
E|----------------------------------------------------------------|
 |
 |
G|------------3---------3---3h4--------------3---------3---3h4----|
D|--------5---------5--------------------5---------5--------------|
A|----------------------------------------------------------------|  x1
E|--0-3-x-------x-x---x---x--------0-3-x-------x-x---x---x--------|
    S S S P   P S S P S P S P      S S S P   P S S P S P S P


e|----------------------------------------------------------------|
B|----------------------------------------------------------------|
G|--3-0---------------------0------3-0---------------------0------|
D|--------3---0-5-0-3-0-3-0---3----------3---0-5-0-3-0-3-0---3----|  x1
A|----------------------------------------------------------------|
E|----------------------------------------------------------------|
 |
 |
G|----------------------------------------------------------------|
D|--------5---3-----5---3---3h5----------5---3-----5---3---3h5----|
A|----------------------------------------------------------------|  x1
E|--0-3-x-------x-x---x---x--------0-3-x-------x-x---x---x--------|
    S S S P   P S S P S P S P      S S S P   P S S P S P S P


e|----------------------------------------------------------------|
B|----------------------------------------------------------------|
G|--3-0---------------------0------3-0---------------------0------|
D|--------3---0-5-0-3-0-3-0---3----------3---0-5-0-3-0-3-0---3----|  x1
A|----------------------------------------------------------------|
E|----------------------------------------------------------------|
 |
 |
G|---------------------------------------------------------3h4----|
D|--------5---3-----5---3---3h5----------5---3-----5---3----------|
A|----------------------------------------------------------------|  x1
E|--0-3-x-------x-x---x---x--------0-3-x-------x-x---x---x--------|
    S S S P   P S S P S P S P      S S S P   P S S P S P S P


Chorus 2:

e|----------------------------------------------------------|
B|----------------------------------------------------------|
G|----------------------------------------------------------|
D|-----------5-5-5-5---------------------5-5-5-5------------|
A|----------------------------------------------------------|
E|--5---------------------------5---------------------------|
 |
 |
G|----------------------------------------------------------|
D|-----------5-5-5-5---------------------5-5-5-5------------|
A|----------------------------------------------------------|
E|--5---------------------------5---------------------------|



e|----------------------------------------------------------|
B|----------------------------------------------------------|
G|----------------------------------------------------------|
D|-----------5-5-5-5---------------------5-5-5-5------------|
A|----------------------------------------------------------|
E|--5---------------------------5---------------------------|
 |
 |
G|------------------------------------------------7--7-5----|
D|-----------5-5-5-5--------------------5-5-5-5-------------|
A|----------------------------------------------------------|
E|--5---------------------------5---------------------------|
                                                  P P  P


e|----------------------------------------------------------|
B|----------------------------------------------------------|
G|----------------------------------------------------------|
D|-----------5-5-5-5--------------------5-5-5-5-------------|
A|----------------------------------------------------------|
E|--5---------------------------5---------------------------|
 |
 |
G|----------------------------------------------------------|
D|-----------5-5-5-5--------------------5-5-5-5-------------|
A|----------------------------------------------------------|
E|--5---------------------------5---------------------------|



e|----------------------------------------------------------|
B|----------------------------------------------------------|
G|----------------------------------------------------------|
D|-----------5-5-5-5--------------------5-5-5-5--x-7--7--7--|
A|----------------------------------------------------------|
E|--5---------------------------5---------------------------|
 |
 |
G|----------------------------------------------------------|
D|-----------5-5-5-5---------------------5-5-5-5------------|
A|----------------------------------------------------------|
E|--5---------------------------5----------------0-2--3--4--|



e|----------------------------------------------------------|
B|----------------------------------------------------------|
G|----------------------------------------------------------|
D|--7----------------x-7--7--7--7----------------x-7--7--7--|
A|----------------------------------------------------------|
E|----------------------------------------------------------|
 |
 |
G|----------------------------------------------------------|
D|-----------5-5-5-5---------------------5-5-5-5------------|
A|----------------------------------------------------------|
E|--5----------------0-2--3--4--5----------------0-2--3--4--|



e|----------------------------------------------------------|
B|----------------------------------------------------------|
G|----------------------------------------------------------|
D|--7----------------x-7--7--7--7----------------x-7--7--7--|
A|----------------------------------------------------------|
E|----------------------------------------------------------|
 |
 |
G|----------------------------------------------------------|
D|-----------5-5-5-5---------------------5-5-5-5------------|
A|----------------------------------------------------------|
E|--5----------------0-2--3--4--5----------------0-2--3--4--|



e|----------------------------------------------------------|
B|----------------------------------------------------------|
G|----------------------------------------------------------|
D|--7----------------x-7--7--7--7----------------x-7--7--7--|
A|----------------------------------------------------------|
E|----------------------------------------------------------|
 |
 |
G|----------------------------------------------------------|
D|-----------5-5-5-5---------------------5-5-5-5------------|
A|----------------------------------------------------------|
E|--5----------------0-2--3--4--5----------------0-2--3--4--|



e|----------------------------------------------------------|
B|----------------------------------------------------------|
G|----------------------------------------------------------|
D|--7----------------x-7--7--7--7----------------x-7--7--7--|
A|----------------------------------------------------------|
E|----------------------------------------------------------|
 |
 |
G|----------------------------------------------------------|
D|-----------5-5-5-5---------------------5-5-5-5------------|
A|----------------------------------------------------------|
E|--5----------------0-2--3--4--5---------------------------|



Verse 3:

e|----------------------------------------------------------------|
B|----------------------------------------------------------------|
G|--3-0---------------------0------3-0---------------------0------|
D|--------3---0-5-0-3-0-3-0---3----------3---0-5-0-3-0-3-0---3----|  x1
A|----------------------------------------------------------------|
E|----------------------------------------------------------------|
 |
 |
G|------------3---------3---3h4--------------3---------3---3h4----|
D|--------5---------5--------------------5---------5--------------|
A|----------------------------------------------------------------|  x1
E|--0-3-x-------x-x---x---x--------0-3-x-------x-x---x---x--------|
    S S S P   P S S P S P S P      S S S P   P S S P S P S P


e|----------------------------------------------------------------|
B|----------------------------------------------------------------|
G|--3-0---------------------0------3-0---------------------0------|
D|--------3---0-5-0-3-0-3-0---3----------3---0-5-0-3-0-3-0---3----|  x1
A|----------------------------------------------------------------|
E|----------------------------------------------------------------|
 |
 |
G|------------3---------3---3h4-----------------------------------|
D|--------5---------5--------------------5---3-----5---3---3h5----|
A|----------------------------------------------------------------|  x1
E|--0-3-x-------x-x---x---x--------0-3-x-------x-x---x---x--------|
    S S S P   P S S P S P S P      S S S P   P S S P S P S P


e|----------------------------------------------------------------|
B|----------------------------------------------------------------|
G|--3-0---------------------0------3-0---------------------0------|
D|--------3---0-5-0-3-0-3-0---3----------3---0-5-0-3-0-3-0---3----|  x1
A|----------------------------------------------------------------|
E|----------------------------------------------------------------|
 |
 |
G|----------------------------------------------------------------|
D|--------5---3-----5---3---3h5----------5---3-----5---3---3h5----|
A|----------------------------------------------------------------|  x1
E|--0-3-x-------x-x---x---x--------0-3-x-------x-x---x---x--------|
    S S S P   P S S P S P S P      S S S P   P S S P S P S P


e|----------------------------------------------------------------|
B|----------------------------------------------------------------|
G|--3-0---------------------0------3-0---------------------0------|
D|--------3---0-5-0-3-0-3-0---3----------3---0-5-0-3-0-3-0---3----|  x1
A|----------------------------------------------------------------|
E|----------------------------------------------------------------|
 |
 |
G|----------------------------------------------------------------|
D|--------5---3-----5---3---3h5----------5---3-----5---3---3------|
A|----------------------------------------------------------------|  x1
E|--0-3-x-------x-x---x---x--------0-3-x-------x-x---x---x--------|
    S S S P   P S S P S P S P      S S S P   P S S P S P S P


Outro:

e|--9--9-9-x-9--9--9-9--x-9-9-9-9----9-9-9-9----------|
B|--7--7-7-x-7--7--7-7--x-7-7-7-7----7-7-7-7----------|
G|--7--7-7-x-7--7--7-7--x-7-7-7-7----7-7-7-7----------|
D|----------------------------------------------------|
A|----------------------------------------------------|
E|----------------------------------------------------|
 |
 |
G|-----------------------------------6-6-6-6----------|
D|--2-------------------------------------------------|
A|-----------------4--------5-------------------------|
E|-------0----3---------------------------------------|



e|--9--9-9-x-9--9--9-9--x-9-9-9-9----9-9-9-9-9-9-9-9--|
B|--7--7-7-x-7--7--7-7--x-7-7-7-7----7-7-7-7-7-7-7-7--|
G|--7--7-7-x-7--7--7-7--x-7-7-7-7----7-7-7-7-7-7-7-7--|
D|----------------------------------------------------|
A|----------------------------------------------------|
E|----------------------------------------------------|
 |
 |
G|-----------------------------------6-6-6-6-6-6-6-6--|
D|--2-------------------------------------------------|
A|-----------------4--------5-5-----------------------|
E|-------0----3---------------------------------------|


Pretty sure this is 100% right. Don't forget to rate 5 stars!
            
Submit corrections

comments powered by Disqus
↑ Back to top | Red Hot Chili Peppers Tabs for Get Up And Jump. Lyrics for acoustic guitar and electric guitar. Tablatures and chords are parodies/interpretations of the original songs. You may use it for private study, scholarship, research or language learning purposes only