» » »

Get Up And Jump Tabs (ver.1)

Artists:  A B C D E F G H I J K L M N O P Q R S T U V W X Y Z # 

Get Up And Jump Tabs (ver.1)

Red Hot Chili Peppers
Rating:
0/5 (0 votes)

Hard to play? Try these video lessons and learn fast.
                Red Hot Chili Peppers
Get Up And Jump (Demo Version)

there is no good tabs for this so i just figured it out to distract myself from a 
philosophy essay
the tab isnt rhythmically perfect, but you'll get the general idea
its dead easy to play

Intro
e|-----------------------------------13-13-13-13---------------------------|
B|-----------------------------------12-12-12-12---------------------------|
G|--10--10--10--10--10--10--10-10------------------------------------------|
D|-------------------------------------------------------------------------|
A|-------------------------------------------------------------------------|
E|-------------------------------------------------------------------------|

Verse
e|-------------------------------------------------------------------------|
B|-------------------------------------------------------------------------|
G|---------------------3p0-------------------------------------------------|
D|--5--3--2--2/3-----------------------------------------------------------|
A|-------------------------------------------------------------------------|
E|-------------------------------------------------------------------------|

Throw a few of these in too
e|-------------------------------------------------------------------------|
B|-------------------------------------------------------------------------|
G|----------------5b7------------------------------------------------------|
D|--5--3--2--2/3-----------------------------------------------------------|
A|-------------------------------------------------------------------------|
E|-------------------------------------------------------------------------|

and
e|-------------------------------------------------------------------------|
B|-------------------------------------------------------------------------|
G|----------------5--3~----------------------------------------------------|
D|--5--3--2--2/3-----------------------------------------------------------|
A|-------------------------------------------------------------------------|
E|-------------------------------------------------------------------------|

Chorus - the guitar doesnt play much here, its just a few little licks at the end 
of the vocal line

e|-------------------------------------------------------------------------|
B|------------------7-x7--5-------------------------7---5------------------|
G|------------------7-x7--5-------------------------7---5------------------|
D|-------------------------------------------------------------------------|
A|-------------------------------------------------------------------------|
E|-------------------------------------------------------------------------|
   get up and jump                get up and jump

and thats pretty much all the guitar parts in the song, just mess around with those parts a bit
the verse is in G and the chorus is in A

| /  slide up
| \  slide down
| h  hammer-on
| p  pull-off
| ~  vibrato
| +  harmonic
| x  Mute note
===============================================================================
            
Hard to play? Try these video lessons and learn fast. | Correct




comments powered by Disqus
↑ Back to top | Tablatures and chords are parodies/interpretations of the original songs. You may use it for private study, scholarship, research or language learning purposes only