>
 >
Funny Face 1

Funny Face 1 Guitar Tabs

Red Hot Chili Peppers - Funny Face 1 chords, tabs, tablatures, lyrics

Guitar lessons | Add/correct | Request | Top 50 tabs Artists:  A B C D E F G H I J K L M N O P Q R S T U V W X Y Z 0-9

Funny Face 1 Guitar Tabs – Red Hot Chili Peppers

CD, Sheet music, Poster

Do you like Funny Face 1? Share with your friends now
Bass TabsChordsTabsTabs v2Ukulele
Funny Face Tab by Red Hot Chili Peppers 


Tuning: Standard (EADGBe)

Intro 0:02

e|------------------------|--------------------------|
B|--6----6----10----10----|--11----11----10----10----|
G|--7----7----10----10----|--12----12----10----10----|  X 2
D|--8----8----10----10----|--12----12----10----10----|
A|--8----8----8-----8-----|--10----10----8-----8-----|
E|------------------------|--------------------------|

Verse 00:13 - "It must have been your funny face"
e|------------------------|--------------------------|
B|--6----6----10----10----|--11----11----10----10----|
G|--7----7----10----10----|--12----12----10----10----|  X 4
D|--8----8----10----10----|--12----12----10----10----|
A|--8----8----8-----8-----|--10----10----8-----8-----|
E|------------------------|--------------------------|

Pre Chorus 0:36 - "You're the reason why"
e|--------6----------5-------------------------------|
B|------------------------------8----6h8 8-----------|
G|----5/7---5----5/7---7---5/7----7--------5---------|
D|---------------------------------------------------|
A|---------------------------------------------------|
E|---------------------------------------------------|

e|--------6----------5----------------------10-------|
B|------------------------------8--------------------|
G|----5/7---5----5/7---7---5/7----7---7/10-------10\-|
D|---------------------------------------------------|
A|---------------------------------------------------|
E|---------------------------------------------------|

Chorus 0:47 w/ Wah - "It must have been your love"
e|-----------------------------------------------------------------------------------|
B|-------6h8p6---6-------10----10h11p10---10-----8--8h10p8---------6---6h8p6---------|
G|---7-xx------7-------10---10----------10------9-9--------9p7---7---7-------7-------|
D|-----------------------------------------------------------------------------------|
A|-----------------------------------------------------------------------------------|
E|-----------------------------------------------------------------------------------|

e|---------------------------------------------------------------------8/10~---------|
B|-------6h8p6---6-------10----10h11p10---10-----8--8h10p8---------6-----------------|
G|---7-xx------7-------10---10----------10------9-9--------9p7---7---7---------------|
D|-----------------------------------------------------------------------------------|
A|-----------------------------------------------------------------------------------|
E|-----------------------------------------------------------------------------------|

e|-----------------------------------------------------------------------------------|
B|-------6h8p6---6-------10----10h11p10---10-----8--8h10p8---------6---6h8p6---------|
G|---7-xx------7-------10---10----------10------9-9--------9p7---7---7-------7-------|
D|-----------------------------------------------------------------------------------|
A|-----------------------------------------------------------------------------------|
E|-----------------------------------------------------------------------------------|

e|-----------------------------------------------------------------------------------|
B|-------6h8p6---6-------10----10h11p10---10-----8--8h10p8---------6---6h8p6---------|
G|---7-xx------7-------10---10----------10------9-9--------9p7---7---7-------7-------|
D|-----------------------------------------------------------------------------------|
A|-----------------------------------------------------------------------------------|
E|-----------------------------------------------------------------------------------|

Verse 01:10 - "It must have been your poppy eyes"
e|------------------------|--------------------------|
B|--6----6----10----10----|--11----11----10----10----|
G|--7----7----10----10----|--12----12----10----10----|  X 4
D|--8----8----10----10----|--12----12----10----10----|
A|--8----8----8-----8-----|--10----10----8-----8-----|
E|------------------------|--------------------------|

Chorus 1:33 w/ Wah - "It must have been your love"
e|-----------------------------------------------------------------------------------|
B|-------6h8p6---6-------10----10h11p10---10-----8--8h10p8---------6---6h8p6---------|
G|---7-xx------7-------10---10----------10------9-9--------9p7---7---7-------7-------|
D|-----------------------------------------------------------------------------------|
A|-----------------------------------------------------------------------------------|
E|-----------------------------------------------------------------------------------|

e|---------------------------------------------------------------------8/10~---------|
B|-------6h8p6---6-------10----10h11p10---10-----8--8h10p8---------6-----------------|
G|---7-xx------7-------10---10----------10------9-9--------9p7---7---7---------------|
D|-----------------------------------------------------------------------------------|
A|-----------------------------------------------------------------------------------|
E|-----------------------------------------------------------------------------------|

e|-----------------------------------------------------------------------------------|
B|-------6h8p6---6-------10----10h11p10---10-----8--8h10p8---------6---6h8p6---------|
G|---7-xx------7-------10---10----------10------9-9--------9p7---7---7-------7-------|
D|-----------------------------------------------------------------------------------|
A|-----------------------------------------------------------------------------------|
E|-----------------------------------------------------------------------------------|

e|-----------------------------------------------------------------------------------|
B|-------6h8p6---6-------10----10h11p10---10-----8--8h10p8---------6---6h8p6---------|
G|---7-xx------7-------10---10----------10------9-9--------9p7---7---7-------7-------|
D|-----------------------------------------------------------------------------------|
A|-----------------------------------------------------------------------------------|
E|-----------------------------------------------------------------------------------|

Bridge 1:56 - "You're my angel baby
e|------------------------------------------------------------------------------|
B|---------13---------------17---------------15---------------15----------------|
G|------14---14----------17---17----------15---15----------15---15--------------| X 4
D|----15-------15------17-------17------17-------17------15-------15------------|
A|-------------------15--------------------------------13-----------------------|
E|-13--------------------------------15-----------------------------------------|

     2:19
e|------------------------|--------------------------|
B|--6----6----10----10----|--11----11----10----10----|
G|--7----7----10----10----|--12----12----10----10----|  X 2
D|--8----8----10----10----|--12----12----10----10----|
A|--8----8----8-----8-----|--10----10----8-----8-----|
E|------------------------|--------------------------|

Pre Chorus 2:31 - "You're the reason why"
e|--------6----------5-------------------------------|
B|------------------------------8----6h8 8-----------|
G|----5/7---5----5/7---7---5/7----7--------5---------|
D|---------------------------------------------------|
A|---------------------------------------------------|
E|---------------------------------------------------|

e|--------6----------5----------------------10-------|
B|------------------------------8--------------------|
G|----5/7---5----5/7---7---5/7----7---7/10-------10\-|
D|---------------------------------------------------|
A|---------------------------------------------------|
E|---------------------------------------------------|

Chorus 2:43 w/ Wah - "It must have been your love"
e|-----------------------------------------------------------------------------------|
B|-------6h8p6---6-------10----10h11p10---10-----8--8h10p8---------6---6h8p6---------|
G|---7-xx------7-------10---10----------10------9-9--------9p7---7---7-------7-------|
D|-----------------------------------------------------------------------------------|
A|-----------------------------------------------------------------------------------|
E|-----------------------------------------------------------------------------------|

e|---------------------------------------------------------------------8/10~---------|
B|-------6h8p6---6-------10----10h11p10---10-----8--8h10p8---------6-----------------|
G|---7-xx------7-------10---10----------10------9-9--------9p7---7---7---------------|
D|-----------------------------------------------------------------------------------|
A|-----------------------------------------------------------------------------------|
E|-----------------------------------------------------------------------------------|

e|-----------------------------------------------------------------------------------|
B|-------6h8p6---6-------10----10h11p10---10-----8--8h10p8---------6---6h8p6---------|
G|---7-xx------7-------10---10----------10------9-9--------9p7---7---7-------7-------|
D|-----------------------------------------------------------------------------------|
A|-----------------------------------------------------------------------------------|
E|-----------------------------------------------------------------------------------|

e|-----------------------------------------------------------------------------------|
B|-------6h8p6---6-------10----10h11p10---10-----8--8h10p8---------6---6h8p6---------|
G|---7-xx------7-------10---10----------10------9-9--------9p7---7---7-------7-------|
D|-----------------------------------------------------------------------------------|
A|-----------------------------------------------------------------------------------|
E|-----------------------------------------------------------------------------------|

Bridge 3:05 - "You're my angel baby"
e|------------------------------------------------------------------------------|
B|---------13---------------17---------------15---------------15----------------|
G|------14---14----------17---17----------15---15----------15---15--------------| X 4
D|----15-------15------17-------17------17-------17------15-------15------------|
A|-------------------15--------------------------------13-----------------------|
E|-13--------------------------------15-----------------------------------------|

      3:29 - "I've stared at eyes in a crooked frown"
e|------------------------------------------------------------------------------|
B|--------15---------------15---------------17---------------20-----------------|
G|-----15---15----------15---15----------17---17----------20---20---------------| X 4
D|---15-------15------15-------15------17-------17------20-------20-------------|
A|-13--------------------------------15---------------18------------------------|
E|-----------------13-----------------------------------------------------------|

Solo 3:53
e|-----------------------------------------|---------------------------------------------------|
B|-----------------------------------------|---------------------------------------------------|
G|--17b—-17p15--17—15p14--15—15p14--15--17-|--17b—-17p15-—17--17b19r17—-15-—15p14—-15b17r15--17|
D|-----------------------------------------|---------------------------------------------------|
A|-----------------------------------------|---------------------------------------------------|
E|-----------------------------------------|---------------------------------------------------|

e|------18-----------17-----------15-----------20--18—20------|------18-------17—-17b19r17--15-|
B|------------------------------------------------------------|--------------------------------|
G|--17b----17p15--17----17—-17p15----15—-15/17----------------|--17b----17p15------------------|
D|------------------------------------------------------------|--------------------------------|
A|------------------------------------------------------------|--------------------------------|
E|------------------------------------------------------------|--------------------------------|

e|------------------|------------------------------------------------------|----------18-------|
B|--18b20r18--------|------------------------------------------------------|-------------------|
G|------------17/15-|--17b—-17p15—-17--15p14--15—-15p14----15--15p14----15-|--17—-17b----17p15-|
D|------------------|-----------------------------------17-----------17----|-------------------|
A|------------------|------------------------------------------------------|-------------------|
E|------------------|------------------------------------------------------|-------------------|

e|-----17----------15----------------------------------|------18-----------17—17b19r17--15-----|
B|-----------------------------------------------------|---------------------------------------|
G|--17----17-—17p15----17p15—-17br—15-—17p15-—17br--15-|--17b----17p15--17---------------------|
D|-----------------------------------------------------|---------------------------------------|
A|-----------------------------------------------------|---------------------------------------|
E|-----------------------------------------------------|---------------------------------------|

e|--18b20r18—20b—20p18--20—-20b22r20--18--17-18-17-18-17-18-17---13----------------------------|
B|---------------------------------------------------------------------------------------------|
G|---------------------------------------------------------------------------------------------|
D|---------------------------------------------------------------------------------------------|
A|---------------------------------------------------------------------------------------------|
E|---------------------------------------------------------------------------------------------|





Comments


Popular Red Hot Chili Peppers tabs & chords
Buckle Down Bass Tabs
Cant Stop Bass Tabs
Get Up And Jump 5 Bass Tabs
Especially In Michigan 1 Chords
Californication Live Tabs
Dani California 8 Tabs
Organic Beat 1 Tabs
Search And Destroy 1 Tabs
Someone Tabs
This Is The Place 1 Tabs


Song lyrics



↑ Back to top | Tablatures and chords are parodies/interpretations of the original songs. You may use it for private study, scholarship, research or language learning purposes only
© 2014 AZChords.com Contact us | Privacy policy | DMCA | Add/correct tabs | Request tabs | Top 50 tabs