>
 >
Funny Face

Funny Face Guitar Tabs

Red Hot Chili Peppers - Funny Face chords, tabs, tablatures, lyrics

Guitar lessons | Add/correct | Request | Top 50 tabs Artists:  A B C D E F G H I J K L M N O P Q R S T U V W X Y Z 0-9

Funny Face Guitar Tabs – Red Hot Chili Peppers

CD, Sheet music, Poster

Do you like Funny Face? Share with your friends now
Bass TabsChordsTabsTabs v2Ukulele
-------------------------------------------------------------------------------
-------------------------------------------------------------------------------

Tuning: Standard (EADGBe)


Not 100% Perfect but it is pretty close... the first version to include the chorus

Intro 0:02
    Bb       Am           G         F
E|---------------------|----------------------|
B|--6----6-------------|--3----3----1----1----|
G|--7----7----5----5---|--4----4----2----2----|  X 2
D|--8----8----7----7---|--5----5----3----3----|
A|--8----8----7----7---|--5----5----3----3----|
E|------------5----5---|----------------------|

Verse 00:13 - "It must have been your funny face"
E|---------------------|----------------------|
B|--6----6-------------|--3----3----1----1----|
G|--7----7----5----5---|--4----4----2----2----|  X 4
D|--8----8----7----7---|--5----5----3----3----|
A|--8----8----7----7---|--5----5----3----3----|
E|------------5----5---|----------------------|

Pre Chorus 0:36 - "You're the reason why"
e|--------6----------5-------------------------------|
B|------------------------------8----6h8 8-----------|
G|----5/7---5----5/7---7---5/7----7--------5---------|
D|---------------------------------------------------|
A|---------------------------------------------------|
E|---------------------------------------------------|

e|--------6----------5----------------------10-------|
B|------------------------------8--------------------|
G|----5/7---5----5/7---7---5/7----7---7/10-------10\-|
D|---------------------------------------------------|
A|---------------------------------------------------|
E|---------------------------------------------------|

Chorus 0:47 w/ Wah - "It must have been your love"
e|-----------------------------------------------------------------------------------|
B|-------6h8p6---6-------10----10h12p10---10-----8--8h10p8---------6---6h8p6---------|
G|---7-xx------7-------10---10----------10------9-9--------9p7---7---7-------7-------|
D|-----------------------------------------------------------------------------------|
A|-----------------------------------------------------------------------------------|
E|-----------------------------------------------------------------------------------|

e|---------------------------------------------------------------------8/10~---------|
B|-------6h8p6---6-------10----10h12p10---10-----8--8h10p8---------6-----------------|
G|---7-xx------7-------10---10----------10------9-9--------9p7---7---7---------------|
D|-----------------------------------------------------------------------------------|
A|-----------------------------------------------------------------------------------|
E|-----------------------------------------------------------------------------------|

e|-----------------------------------------------------------------------------------|
B|-------6h8p6---6-------10----10h12p10---10-----8--8h10p8---------6---6h8p6---------|
G|---7-xx------7-------10---10----------10------9-9--------9p7---7---7-------7-------|
D|-----------------------------------------------------------------------------------|
A|-----------------------------------------------------------------------------------|
E|-----------------------------------------------------------------------------------|

e|-----------------------------------------------------------------------------------|
B|-------6h8p6---6-------10----10h12p10---10-----8--8h10p8---------6---6h8p6---------|
G|---7-xx------7-------10---10----------10------9-9--------9p7---7---7-------7-------|
D|-----------------------------------------------------------------------------------|
A|-----------------------------------------------------------------------------------|
E|-----------------------------------------------------------------------------------|

Verse 01:10 - "It must have been your poppy eyes"
E|---------------------|----------------------|
B|--6----6-------------|--3----3----1----1----|
G|--7----7----5----5---|--4----4----2----2----|  X 4
D|--8----8----7----7---|--5----5----3----3----|
A|--8----8----7----7---|--5----5----3----3----|
E|------------5----5---|----------------------|

Chorus 1:33 w/ Wah - "It must have been your love"
e|-----------------------------------------------------------------------------------|
B|-------6h8p6---6-------10----10h12p10---10-----8--8h10p8---------6---6h8p6---------|
G|---7-xx------7-------10---10----------10------9-9--------9p7---7---7-------7-------|
D|-----------------------------------------------------------------------------------|
A|-----------------------------------------------------------------------------------|
E|-----------------------------------------------------------------------------------|

e|---------------------------------------------------------------------8/10~---------|
B|-------6h8p6---6-------10----10h12p10---10-----8--8h10p8---------6-----------------|
G|---7-xx------7-------10---10----------10------9-9--------9p7---7---7---------------|
D|-----------------------------------------------------------------------------------|
A|-----------------------------------------------------------------------------------|
E|-----------------------------------------------------------------------------------|

e|-----------------------------------------------------------------------------------|
B|-------6h8p6---6-------10----10h12p10---10-----8--8h10p8---------6---6h8p6---------|
G|---7-xx------7-------10---10----------10------9-9--------9p7---7---7-------7-------|
D|-----------------------------------------------------------------------------------|
A|-----------------------------------------------------------------------------------|
E|-----------------------------------------------------------------------------------|

e|-----------------------------------------------------------------------------------|
B|-------6h8p6---6-------10----10h12p10---10-----8--8h10p8---------6---6h8p6---------|
G|---7-xx------7-------10---10----------10------9-9--------9p7---7---7-------7-------|
D|-----------------------------------------------------------------------------------|
A|-----------------------------------------------------------------------------------|
E|-----------------------------------------------------------------------------------|

Bridge 1:56 - "You're my angel baby"
e|---------------------------------------------------------------------------|
B|--------6----------------10----------------8-------------6-----------------|
G|------7---7-----------10----10-----------8---8---------7---7---------------| X 4
D|----8-------8------10----------10------8-------8-----7-------7-------------|
A|--8--------------8-------------------6-------------5-----------------------|
E|---------------------------------------------------------------------------|

     2:19
E|---------------------|----------------------|
B|--6----6-------------|--3----3----1----1----|
G|--7----7----5----5---|--4----4----2----2----|  X 2
D|--8----8----7----7---|--5----5----3----3----|
A|--8----8----7----7---|--5----5----3----3----|
E|------------5----5---|----------------------|


Pre Chorus 2:31 - "You're the reason why"
e|--------6----------5-------------------------------|
B|------------------------------8----6h8 8-----------|
G|----5/7---5----5/7---7---5/7----7--------5---------|
D|---------------------------------------------------|
A|---------------------------------------------------|
E|---------------------------------------------------|

e|--------6----------5----------------------10-------|
B|------------------------------8--------------------|
G|----5/7---5----5/7---7---5/7----7---7/10-------10\-|
D|---------------------------------------------------|
A|---------------------------------------------------|
E|---------------------------------------------------|

Chorus 2:43 w/ Wah - "It must have been your love"
e|-----------------------------------------------------------------------------------|
B|-------6h8p6---6-------10----10h12p10---10-----8--8h10p8---------6---6h8p6---------|
G|---7-xx------7-------10---10----------10------9-9--------9p7---7---7-------7-------|
D|-----------------------------------------------------------------------------------|
A|-----------------------------------------------------------------------------------|
E|-----------------------------------------------------------------------------------|

e|---------------------------------------------------------------------8/10~---------|
B|-------6h8p6---6-------10----10h12p10---10-----8--8h10p8---------6-----------------|
G|---7-xx------7-------10---10----------10------9-9--------9p7---7---7---------------|
D|-----------------------------------------------------------------------------------|
A|-----------------------------------------------------------------------------------|
E|-----------------------------------------------------------------------------------|

e|-----------------------------------------------------------------------------------|
B|-------6h8p6---6-------10----10h12p10---10-----8--8h10p8---------6---6h8p6---------|
G|---7-xx------7-------10---10----------10------9-9--------9p7---7---7-------7-------|
D|-----------------------------------------------------------------------------------|
A|-----------------------------------------------------------------------------------|
E|-----------------------------------------------------------------------------------|

e|-----------------------------------------------------------------------------------|
B|-------6h8p6---6-------10----10h12p10---10-----8--8h10p8---------6---6h8p6---------|
G|---7-xx------7-------10---10----------10------9-9--------9p7---7---7-------7-------|
D|-----------------------------------------------------------------------------------|
A|-----------------------------------------------------------------------------------|
E|-----------------------------------------------------------------------------------|

Bridge 3:05 - "You're my angel baby"
e|---------------------------------------------------------------------------|
B|--------6----------------10----------------8-------------6-----------------|
G|------7---7-----------10----10-----------8---8---------7---7---------------|  X 4
D|----8-------8------10----------10------8-------8-----7-------7-------------|
A|--8--------------8-------------------6-------------5-----------------------|
E|---------------------------------------------------------------------------|

      3:29 - "I've stared at eyes in a crooked frown"
e|---------------------------------------------------------------------------|
B|--------6----------------10----------------8-------------6-----------------|
G|------7---7-----------10----10-----------8---8---------7---7---------------|  X 4
D|----8-------8------10----------10------8-------8-----7-------7-------------|
A|--8--------------8-------------------6-------------5-----------------------|
E|---------------------------------------------------------------------------|


Solo 3:53
e|---------------------------------------------------------------------------|
B|--13b----13p11-13----11p10-11---11p10-11--13--13b---13p11-13--13b-11-------|
G|---------------------------------------------------------------------------|
D|---------------------------------------------------------------------------|
A|---------------------------------------------------------------------------|
E|---------------------------------------------------------------------------|

e|-----------------------------18---------17--------15----------20-18-20-----|
B|-11p10--11b13r11--11--13--13b--13----13b--13---11b-----11/13---------------|
G|---------------------------------------------------------------------------|
D|---------------------------------------------------------------------------|
A|---------------------------------------------------------------------------|
E|---------------------------------------------------------------------------|

e|-----18------17-17br17-15--15/13--13---------------------------------------|
B|-13b------13b-------------------------11/13---13b--13p11--13---11p10-11----|
G|---------------------------------------------------------------------------|
D|---------------------------------------------------------------------------|
A|---------------------------------------------------------------------------|
E|---------------------------------------------------------------------------|

e|--------------------------------------------------------18-----17----------|
B|-11p10--11--11p10--11----13b-13p11-13--11p10-11--13--13b----13b------------|
G|------12---------12--------------------------------------------------------|
D|---------------------------------------------------------------------------|
A|---------------------------------------------------------------------------|
E|---------------------------------------------------------------------------|

e|-17b18r17--15---18b-18-20-20b21--20p18--20b21p18-18-17-18-17-18-17-18-17---|
B|---------------------------------------------------------------------------|
G|---------------------------------------------------------------------------|
D|---------------------------------------------------------------------------|
A|---------------------------------------------------------------------------|
E|---------------------------------------------------------------------------|

e|-13---------|
B|------------|
G|------------|
D|------------|
A|------------|
E|------------|

There you go... i think its about 95% right... Might be a few mistakes in the solo 
there is so many notes it gets a bit hard to get them all right with the bends.

| b  bend
| r  release
| /  slide up
| \  slide down
| h  hammer-on
| p  pull-off
| ~  vibrato
| x  Mute note
===============================================================================





Comments


Popular Red Hot Chili Peppers tabs & chords
Blues For Meister 4 Bass Tabs
By Tha Way Bass Tabs
By The Way 5 Bass Tabs
Fire 2 Bass Tabs
Naked In The Rain 2 Bass Tabs
What It Is Bass Tabs
Boyz N The Hood Tabs
Californication Live Intro Tabs
Cant Stop Live Tabs
Get Up And Jump Live Tabs


Song lyrics



↑ Back to top | Tablatures and chords are parodies/interpretations of the original songs. You may use it for private study, scholarship, research or language learning purposes only
© 2014 AZChords.com Contact us | Privacy policy | DMCA | Add/correct tabs | Request tabs | Top 50 tabs