» » »

F U Bass tabs (ver.1)

Artists:  A B C D E F G H I J K L M N O P Q R S T U V W X Y Z # 

F U Bass tabs (ver.1)

Red Hot Chili Peppers
Rating:
0/5 (0 votes)

Hard to play? Try these video lessons and learn fast.
                "(2)
"Red Hot Chili Peppers"
Song title: F.U.
Standard tunning (GDAE)

Intro
G|----12------12-10-9---------------------------|
D|-12------12---------12-12-10-10---------------|
A|--------------------------------9-10----------|
E|----------------------------------------------|

Main Riff
G|--------------------------------------------------|
D|----12------12-10-9-------------------------------|
A|-12------12---------12-12-10-10-------------------|
E|--------------------------------9-10--------------|

And the other part...

G|----12------12-10-9---------------------------|
D|--------------------12-12-10-10---------------|
A|-12------12---------------------9-10----------|
E|----------------------------------------------|

 ...and add this little fill sometimes..... (with harmonics)

G|--19------|
D|-----19---|
A|----------|
E|----------|

...And end with this 

G|--------------|
D|--------------|
A|-9------------|
E|---10~~~~~----|

...And when the song ends, comes this riff...

G|----------------------|
D|---------3-5-3--5~~~--|
A|----------------------|
E|-xh3-xh3--------------|
  T   T   T T T  T


¡¡¡¡¡ Have fun with this !!!!!

¡¡¡¡¡¡¡¡¡¡¡¡VIVA CHILE MIERDA!!!!!!!!!!!!
"            
Hard to play? Try these video lessons and learn fast. | Correct




comments powered by Disqus
↑ Back to top | Tablatures and chords are parodies/interpretations of the original songs. You may use it for private study, scholarship, research or language learning purposes only