» » »

Red Hot Chili Peppers, F U Tabs (ver.2)

Artists:  A B C D E F G H I J K L M N O P Q R S T U V W X Y Z # 

F U Tabs (ver.2)

Red Hot Chili Peppers Tabs
Rating:
0/5 (0 votes)
F U lessons Tabs too difficult? Try these video lessons and learn fast
                Red Hot Chili Peppers
F.U. (Live)
Out in L.A.


Indeed great song to play to somebody u "love". Have fun w/ this.

( ) - natural harmonic
b - bend (w/ whamy bar)
r - release (w/ whamy bar)
~ - vibrato (w/ whamy bar)

e|----------------------------------|
B|---8--------8-6-5-----------------|
G|-7--------7-------7-7-5-5-4-4-----|
D|------------------------------4-5-|
A|----------------------------------|
E|----------------------------------|

e|----------------------------------|            e|----------|
B|----------------------------------|            B|-(7)------|
G|---7--------7-5-4-----------------| x2  then:  G|----------|
D|-7--------7-------7-7-5-5-4-4-----|            D|-----(5)--|
A|------------------------------4-5-|            A|----------|
E|----------------------------------|            E|----------|

e|----------------------------------------|------------------------------------------|
B|----------------------------------------|---8--------8-6-5-------------------------|
G|---7--------7-5-4-------------------7---|-7--------7-------7-7-5-5-4-4-------0-(5)-|
D|-7--------7-------7-7-5-5-4-4---------x-|------------------------------4-5---0-----|
A|------------------------------4-5-------|------------------------------------------|
E|----------------------------------------|------------------------------------------|

e|----------------------------------|            e|----------------------------------|
B|----------------------------------|            B|---8--------8-6-5-----------------|
G|---7--------7-5-4-----------------| x3  then:  G|-7--------7-------7-7-5-5-4-4-----|
D|-7--------7-------7-7-5-5-4-4-----|            D|------------------------------4-5-|
A|------------------------------4-5-|            A|----------------------------------|
E|----------------------------------|            E|----------------------------------|

e|----------------------------------|------------------|
B|----------------------------------|------------------|
G|---7--------7-5-4-----------------|------------------|
D|-7--------7-------7-7-5-5-4-4-----|-4----------------|
A|------------------------------4-5-|----5---r4.5~~~b5-|
E|----------------------------------|------------------|
            

comments powered by Disqus
↑ Back to top | Red Hot Chili Peppers Tabs for F U. Lyrics for acoustic guitar and electric guitar. Tablatures and chords are parodies/interpretations of the original songs. You may use it for private study, scholarship, research or language learning purposes only