» » »

Fire Bass tabs (ver.1)

Artists:  A B C D E F G H I J K L M N O P Q R S T U V W X Y Z # 

Fire Bass tabs (ver.1)

Red Hot Chili Peppers
Rating:
0/5 (0 votes)

Hard to play? Try these video lessons and learn fast.
                (2)
This is how it starts
G---------------------------------------------------------------------------|
D--------6--5----------3--5---------------6--5-----------3--5---------------|
A-----------------5--------------5-5---------------5---------------55-------|x1
E---------------------------------------------------------------------------|

               You do this once every about 2 seconds during the verse 
G--------------------|
D--------------------|x6 only first time and after guitar solo, next verses are x5
A-----0-3-5-5--------|
E--------------------|

              This is during the chorus
G-------------------------------------------------------------------|
D-------------------------------------------------------------------|x2
A------5--------------22-33-44--------5-5------------22--33-4-------|
E----------23---5-----------------------------23--5-----------------|

              During the guitar solo and after it
G-------------------------------------------------------------------|
D-------------------------------------------------------------------|
A---------7-------------44-55-66----7-7-------------44-55-6---------|x2 during solo 
E--------------45--7-------------------------45--7------------------|

x6 after


This is my first tab so please rate it and post comments
            
Hard to play? Try these video lessons and learn fast. | Correct




comments powered by Disqus
↑ Back to top | Tablatures and chords are parodies/interpretations of the original songs. You may use it for private study, scholarship, research or language learning purposes only