» » »

Fire Bass tabs (ver.3)

Artists:  A B C D E F G H I J K L M N O P Q R S T U V W X Y Z # 

Fire Bass tabs (ver.3)

Red Hot Chili Peppers
Rating:
0/5 (0 votes)

Hard to play? Try these video lessons and learn fast.
                Fire
Red Hot Chili Peppers
Mothers Milk


  Bass fig.1 (Intro)
G--------------------------------------------------------------------
D--6--5----3--5--0-0---6--5----0--3--5--0-0--------------------------
A--------------------------------------------0--3--5-5----0--3--5-5--
E--------------------------------------------------------------------

  Bass fig.2 (Verse)
G------------------------------------------------------------------
D------------------------------------------------------------------
A--0--3--5-5----0--3--5-5----0--3--5-5----0--3--5-5----------------
E------------------------------------------------------------------

  Bass fig.3 (Chorus)
G-------------------------------------------------------------
D-------------------------------------------------------------
A--5-5-----------2-2-3-3-4-4--5-5----------2-2-3-3-4-4-5-5-5-
E------3-3-4-5-5------------------3-3-4-5-5-------------------

  Bass fig.4 (Interlude 1)
G--------------------------------------------------------------------
D--------------------------------------------------------------------
A-5--5-5-5--5--5-5-5--3--3-3-3--3--3-3-3-----------------------------
E----------------------------------------5-0-3-5--0-3-5--0-3-5--0-3-5

G----------------------------------------------------
D----------------------------------------------------
A-3-3-3-3-3/15-15-15-15--15-15-15-15-----------------
E----------------------------------------------------

G---------------------------------------------------------------------
D---------------------------------------------------------------------
A--7-7---------4-4-5-5-6-6--7-7---------4-4-5-5-6-6-------------------
E-----5-5-6-7-7----------------5-5-6-7-7------------------------------

G---------------------------------------------------------------------
D---------------------------------------------------------------------
A--7-7---------4-4-5-5-6-6--7-7---------4-4-5-5-6-6-------------------
E-----5-5-6-7-7----------------5-5-6-7-7------------------------------

  Bass fig.5 (Interlude 2)
G---------------------------------------------------------------------
D---------------------------------------------------------------------
A--7-7---------4-4-5-5-6-6--7-7---------4-4-5-5-6-6-------------------
E-----5-5-6-7-7----------------5-5-6-7-7------------------------------

G---------------------------------------------------------------------
D---------------------------------------------------------------------
A--5-5-----------2-2-3-3-4-4--5-5----------2-2-3-3-4-4-5-5-5----------
E------3-3-4-5-5------------------3-3-4-5-5---------------------------

G---------------------------------------------------------------------
D---------------------------------------------------------------------
A--7-7---------4-4-5-5-6-6--7-7--5-5-5-5--3-3-3-3--5-5-5-5--3-3-3-3---
E-----5-5-6-7-7-------------------------------------------------------

 Bass fig.6 (Outro)
G--------------------------------------------------------
D--6--5----3--5--0-0---6--5----0--3--5--0-0--------------
A--------------------------------------------0--3--5-5---
E--------------------------------------------------------

Fin~
            
Hard to play? Try these video lessons and learn fast. | Correct




comments powered by Disqus
↑ Back to top | Tablatures and chords are parodies/interpretations of the original songs. You may use it for private study, scholarship, research or language learning purposes only