» » »

Fight Like A Brave Tabs (ver.2)

Artists:  A B C D E F G H I J K L M N O P Q R S T U V W X Y Z # 

Fight Like A Brave Tabs (ver.2)

Red Hot Chili Peppers
Rating:
0/5 (0 votes)

Hard to play? Try these video lessons and learn fast.
                This is my second tab. Sorry if I made any mistakes, I think I did everything right. This is one of my favourite rhcp songs. Sorry, no solos or fills.  R.I.P. HILLEL SLOVAK
        I edited it and made some changes. Please rate this tab.
 Intro:
 
E-----------------------------------------|
B-----------------------------------------|
G---------------------------------------7-|
D-7-7-5-7---7-7-5-7---7-7-5-7---7-7-7-5-7-|
A-7-7-5-7---7-7-5-7---7-7-5-7---7-7-7-5-5-|
E-5-5-5-5---5-5-5-5---5-5-5-5---5-5-5-3---|

 Verses:

E-----------------------------------------|
B-----------------------------------------|
G---------5-------------------5---------7-|
D-7-7-5-7-5-7-7-5-7---7-7-5-7-5-7-7-7-5-7-|
A-7-7-5-7-3-7-7-5-7---7-7-5-7-3-7-7-7-5-5-|
E-5-5-5-5---5-5-5-5---5-5-5-5---5-5-5-3---|

 Choruses:

E---------7---------14-14-14---------14-----------|
B---------7---------14-14-14---------14-----------|
G---------7---------14-14-14---------14---------9-|
D-9-9-7-9---9-9-7-9----------9-9-7-9----9-9-9-7-9-|
A-9-9-7-9---9-9-7-9----------9-9-7-9----9-9-9-7-7-|
E-7-7-7-7---7-7-7-7----------7-7-7-7----7-7-7-5---|


End of Chorus before the bass part:                                               
E---------------------|
B---------------------|
G---------------------|
D-7-2-7-2~------------|
A-7-2-7-2~-(sustain)--|
E-5-0-5-0~------------|
            
Hard to play? Try these video lessons and learn fast. | Correct




comments powered by Disqus
↑ Back to top | Tablatures and chords are parodies/interpretations of the original songs. You may use it for private study, scholarship, research or language learning purposes only