» » »

Red Hot Chili Peppers, Fight Like A Brave Tabs (ver.1)

Artists:  A B C D E F G H I J K L M N O P Q R S T U V W X Y Z # 

Fight Like A Brave Tabs (ver.1)

Red Hot Chili Peppers Tabs
 Rating:
4/5 (4 votes)
Fight Like A Brave lessons Tabs too difficult? Try these video lessons and learn fast
1
                Red Hot Chili Peppers - Fight Like a Brave





Intro
|-----------------------------------------------------------------
|-----------------------------------------------------------------
|--3-3-3-3-1-1-3--3-3-3-3-1-1--3-3-3-3-3-1-1-3--3-3-3-3-1-1----8--
|--3-3-3-3-1-1-3--3-3-3-3-1-1--3-3-3-3-3-1-1-3--3-3-3-3-1-1-4--8--
|--1-1-1-1-1-1-1--1-1-1-1-1-1--1-1-1-1-1-1-1-1--1-1-1-1-1-1-4--6--
|-----------------------------------------------------------2-----

Verse
|---------------------------------
|---------------------------------
|--3-3-3-3-1-1-3-8-3-3-3-3-1-1-3--
|--3-3-3-3-1-1-3-8-3-3-3-3-1-1-3--
|--1-1-1-1-1-1-1-6-1-1-1-1-1-1-1--
|---------------------------------

Chorus
|-----------------
|--5-5-5-5-3-3-5--
|--5-5-5-5-3-3-5--
|--5-5-5-5-3-3-5--
|--3-3-3-3-3-3-3--
|-----------------

Then the part at the end of the chorus is:
|-----------
|-----------
|--3---3----
|--3-3-3-3--
|--1-3-1-3--
|----1---1--

Solo
|------------------------------------------------------------------------------------
|----------------------7b8--------------------7b8--16b18-(16)18~~-18r16p12----14b16--
|----------------------7b8------------------9-7b8--------------------------14-14b16--
|--7/9-9-9-9-9-9p7-7h9------7/9-9-9-9-9-9h7------------------------------------------
|------------------------------------------------------------------------------------
|------------------------------------------------------------------------------------

|------------------------------------------------------------------------------------
|--15-12b13~-------------------------------------------------------------------------
|-----11b12~--12-12-9-------12-12-9-------12-12-9------------------------------------
|-------------12-12-9-7-9-7-12-12-9-7-9-7-12-12-9-7-9-12-9-7-9-12-9-7-9-12-12-9-0----
|------------------------------------------------------------------------------------
|------------------------------------------------------------------------------------
                                ^^^^
|--17b19-17b19-17b19-17b19----17-----17p15-17b19-15- That's all I can be bothered doing
|--------------------------------------------------- of the solo. If anyone knows the 
|--------------------------------------------------- complete solo or has any correctons
|--------------------------------------------------- on this one, please e-mail them to 
|--------------------------------------------------- me!
|---------------------------------------------------
            
Submit corrections

comments powered by Disqus
↑ Back to top | Red Hot Chili Peppers Tabs for Fight Like A Brave. Lyrics for acoustic guitar and electric guitar. 1 Tablatures and chords are parodies/interpretations of the original songs. You may use it for private study, scholarship, research or language learning purposes only