» » »

Red Hot Chili Peppers, Falling Into Grace Bass tabs (ver.6)

Artists:  A B C D E F G H I J K L M N O P Q R S T U V W X Y Z # 

Falling Into Grace Bass tabs (ver.6)

Red Hot Chili Peppers Tabs
 Rating:
4/5 (4 votes)
Falling Into Grace lessons Tabs too difficult? Try these video lessons and learn fast
1
                -------------------------------------------------------------------------------
			     Falling Into Grace by Red Hot Chili Peppers
-------------------------------------------------------------------------------


Tuning: Standard
Use Envelope Filter.
Intro/Verse 1
G|-----------------------------------------------------------------------------------|
D|-----------------------------------------------------------------------------------|
A|--------------0-2-3-2-0------------0-2-3--------------0-2-3-2-0-----------0-2------|
E|----0h2-0h2-0-----------2-2--0h2-0----------0h2-0h2-0-----------2-2-0h2-0-----2----|

G|-----------------------------------------------------------------------------------|
D|-----------------------------------------------------------------------------------|
A|--------------0-2-3-2-0------------0-2-3--------------0-2-3-2-0-----------0-2------|
E|----0h2-0h2-0-----------2-2--0h2-0----------0h2-0h2-0-----------2-2-0h2-0-----2----|

G|---------------------------------------------------------------------------------------|
D|---------------------------------------------------------------------------------------|
A|--------------0-2-3-2-0------------0-2-3--------------0-2-3-2-0-----------0-2----/12\--|
E|----0h2-0h2-0-----------2-2--0h2-0----------0h2-0h2-0-----------2-2-0h2-0-----2--------|

G|-----------------------------------------------------------------------------------|
D|-----------------------------------------------------------------------------------|
A|--------------0-2-3-2-0------------0-2-3--------------0-2-3-2-0-----------0-2------|
E|----0h2-0h2-0-----------2-2--0h2-0----------0h2-0h2-0-----------2-2-0h2-0-----2----|


Chorus x3         

G|---------------------------------------------------------------------------|
D|---------------------------------------------------------------------------|
A|-3-2-----------------------------------------------------------------------|
E|-----0----0-0--------------------------------------------------------------|

Chorus End x1
G|---------------------------------------------------------------------------|
D|---------------------------------------------------------------------------|
A|--3-2---543----------------------------------------------------------------|
E|---------------------------------------------------------------------------|

Verse 2

G|-----------------------------------------------------------------------------------|
D|-----------------------------------------------------------------------------------|
A|--------------0-2-3-2-0------------0-2-3--------------0-2-3-2-0-----------0-2------|
E|----0h2-0h2-0-----------2-2--0h2-0----------0h2-0h2-0-----------2-2-0h2-0-----2----|

****Variations Start Here, Listen closely!!*****

G|---------------------------------------------------------------------------------------|
D|---------------------------------------------------------------------------------------|
A|--------------0-2-3-2-0------------0-2-3--------------0-2-3-2-----------------0-2---/9-|
E|----0h2-0h2-0-----------2-2--0h2-0----------0h2-0h2-0-----------0h2-0h2-0h2-0-----2----|

G|----------------------------------------------------------------------------------------|
D|----------------------------------------------------------------------------------------|
A|--------------0-2-3-2------------------0-2-3--------------0-2-3-2---------------0-2---4-|
E|----0h2-0h2-0----------0h2-0h2-0h2-0----------0h2-0h2-0-----------0h2-0h2-0h2-0-----2---|

G|---------------------------------------------(13)----------------------------------------|
D|-----------------------------------------------------------------------------------------|
A|--------------0-2-3-2------------------0-2-3-----------------0-2-3-2---------------0-2---|
E|----0h2-0h2-0----------0h2-0h2-0h2-0-------------0h2-0h2-0-----------0h2-0h2-0h2-0-----2-|

Chorus x3         

G|---------------------------------------------------------------------------|
D|---------------------------------------------------------------------------|
A|-3-2-----------------------------------------------------------------------|
E|-----0----0-0--------------------------------------------------------------|

Chorus End x1
G|---------------------------------------------------------------------------|
D|---------------------------------------------------------------------------|
A|--3-2---543----------------------------------------------------------------|
E|---------------------------------------------------------------------------|

Bridge

G|------4-------5-42--------4-------5-542---------4-------542--------4---------|
D|----4-------5------42---4-------5------542----4-------5----5424--4-----------|
A|--2-----2-3-----------2-----2-3------------02-----2-3----------2-----2-5-4-3-|
E|-----------------------------------------------------------------------------|

Verse 3

G|---------------------------------------------------------------------------------------|
D|---------------------------------------------------------------------------------------|
A|--------------0-2-3-2-0------------0-2-3--------------0-2-3-2-----------------0-2------|
E|----0h2-0h2-0-----------2-2--0h2-0----------0h2-0h2-0-----------0h2-0h2-0h2-0-----2----|

G|----------------------------------------------------------------------------------------|
D|----------------------------------------------------------------------------------------|
A|--------------0-2-3-2------------------0-2-3--------------0-2-3-2---------------0-2-----|
E|----0h2-0h2-0----------0h2-0h2-0h2-0----------0h2-0h2-0-----------0h2-0h2-0h2-0-----2---|

Outro A x3

G|---------------------------------------------------------------------------|
D|---------------------------------------------------------------------------|
A|-3-2-----------------------------------------------------------------------|
E|-----0----0-0--------------------------------------------------------------|

Outro B x1

G|---------------------------------------------------------------------------|
D|---------------------------------------------------------------------------|
A|--3-2---543----------------------------------------------------------------|
E|---------------------------------------------------------------------------|

Outro C x2

G|---------------------------------------------------------------------------|
D|---------------------------------------------------------------------------|
A|-3-2-----------------------------------------------------------------------|
E|-----0----0-0--------------------------------------------------------------|

Outro D x1

G|---------------------------------------------------------------------------|
D|----------2-2--------------------------------------------------------------|
A|---3-2---------------------------------------------------------------------|
E|-------0-------------------------------------------------------------------|

Outro E x1

G|---------------------------------------------------------------------------|
D|---------------------------------------------------------------------------|
A|----3-2--543---------------------------------------------------------------|
E|---------------------------------------------------------------------------|




| /  slide up
| \  slide down
| h  hammer-on
| p  pull-off
| ~  vibrato
| +  harmonic
| x  Mute note
===============================================================================
            
Submit corrections

comments powered by Disqus
↑ Back to top | Red Hot Chili Peppers Bass for Falling Into Grace. Lyrics for acoustic guitar and electric guitar. 1 Tablatures and chords are parodies/interpretations of the original songs. You may use it for private study, scholarship, research or language learning purposes only