» » »

Red Hot Chili Peppers, Falling Into Grace Bass tabs (ver.3)

Artists:  A B C D E F G H I J K L M N O P Q R S T U V W X Y Z # 

Falling Into Grace Bass tabs (ver.3)

Red Hot Chili Peppers Tabs
Rating:
0/5 (0 votes)
Falling Into Grace lessons Tabs too difficult? Try these video lessons and learn fast
                Verse
G|----------------------------------|-------------------------------------|
D|----------------------------------|-------------------------------------|
A|----------------2---3--2----------|------------------2---3--------------|
E|-0h2-2-2-2-5----------------------|-2-2---2-2-2-5-----------------------|
 
G|----------------------------------|-------------------------------------|
D|----------------------------------|-------------------------------------|
A|----------------2---3--2----------|------------------2------------------|
E|-0h2-2-2-2-5----------------------|-2-2---2-2-2-5--------2--------------| 

Chorus
G|----------------------------------|-------------------------------------|
D|----------------------------------|-------------------------------------|
A|----------------------------------|-------------------------------------|
E|-8--------------7-----------------|-0-----------------------------------|

The bass plays this little riff at the end of the chorus
G|----------------------------------|-------------------------------------|
D|----------------------------------|-------------------------------------|
A|----------------------------------|-5----------4---------3--------------|
E|-8--------------7-----------------|-------------------------------------|
            

comments powered by Disqus
↑ Back to top | Red Hot Chili Peppers Bass for Falling Into Grace. Lyrics for acoustic guitar and electric guitar. Tablatures and chords are parodies/interpretations of the original songs. You may use it for private study, scholarship, research or language learning purposes only