>
 >
Falling Into Grace

Falling Into Grace Bass Tabs

Red Hot Chili Peppers - Falling Into Grace chords, tabs, tablatures, lyrics

Guitar lessons | Add/correct | Request | Top 50 tabs Artists:  A B C D E F G H I J K L M N O P Q R S T U V W X Y Z 0-9

Falling Into Grace Bass Tabs – Red Hot Chili Peppers

CD, Sheet music, Poster

Do you like Falling Into Grace? Share with your friends now
Bass TabsBass Tabs v2Bass Tabs v3Bass Tabs v4Bass Tabs v5Bass Tabs v6Bass Tabs v7Tabs
FALLING INTO GRACE (Bassline)
As recorded by Red Hot Chili Peppers
(From the 1995 Album ONE HOT MINUTE)



 Words and Music by Anthony Keidis, Michael Balzary, Chad Smith And David Navarro

 

Gtr I (E A D G) - 'Standard'


 Intro
  Moderately Q=92(16=s16)
 4/4
  Gtr I
  S   S S S S e e E. S S S S S
|---|--------------------------|
|---|--------------------------|
|---|---------0-2-3--2---------|
|-0-|-2-0-2-0------------0-2-2-|


  S S S S e e E E E. S   S S S S e e E. S S S S S
|----------------------|--------------------------|
|----------------------|--------------------------|
|---------0-2-3--------|---------0-2-3--2---------|
|---0-2-0------------0-|-2-0-2-0------------0-2-2-|


                         Verse
  S S S S e e E E E. S    S S S S e e E. S S S S S   S S S S e e E E E. S
|----------------------||--------------------------|-----------------------|
|----------------------||--------------------------|-----------------------|
|---------0-2----------||---------0-2-3--2---------|---------0-2-3---------|
|---0-2-0-----2------0-||-2-0-2-0------------0-2-2-|---0-2-0------------0--|


  S S S S e e E. S S S S S   S S S S e e E E E. S   S S S S e e E. S S S S S
|--------------------------|----------------------|---------------------------|
|--------------------------|----------------------|---------------------------|
|---------0-2-3--2---------|---------0-2----------|---------0-2-3--2----------|
|-2-0-2-0------------0-2-2-|---0-2-0-----2------0-|-2-0-2-0------------0-2-2--|


  S S S S e e E E E. S   S S S S e e E. S S S S S
|----------------------|--------------------------|
|----------------------|--------------------------|
|---------0-2-3--------|---------0-2-3--2---------|
|---0-2-0------------0-|-2-0-2-0------------0-2-2-|


  S S S S e e e S S  E  +E
|----------------------------||
|----------------------------||
|---------0-2-----2h12-(12)\-||
|---0-2-0-----2--------------||


 Pre-Chorus
  S S S S e e E. S S S S S   S S S S e e E E E. S   S S S S e e E. S S S S S
|--------------------------|----------------------|---------------------------|
|--------------------------|----------------------|---------------------------|
|---------0-2-3--2---------|---------0-2-3--------|---------0-2-3--2----------|
|-2-0-2-0------------0-2-2-|---0-2-0------------0-|-2-0-2-0------------0-2-2--|


                          Chorus
                                           1.,2.,3.
  S S S S e e E E E. S     Q.   E Q.   E   Q.   E E e S e S  4x
|----------------------||----------------|-------------------||
|----------------------||o-5------4------|------------------o||
|---------0-2----------||o-3------2------|------------------o||
|---0-2-0-----2------0-||----------------|-0--------0---0----||


  4.
  Q  Q  E E E. S    S S S S e e E. S S S S S   S S S S e e E E E. S
|----------------||--------------------------|---------------5------|
|-0--------------||--------------------------|----------------------|
|----4--3--------||---------0-2-3--2---------|---------0-2-3--------|
|--------------0-||-2-0-2-0------------0-2-2-|---0-2-0------------0-|


                                                    Verse
  S S S S e e E. S S S S S   S S S S e e E E E. S    S S S S e e E. S S S S S
|--------------------------|----------------------||---------------------------|
|--------------------------|----------------------||---------------------------|
|---------0-2-3--2---------|---------0-2----------||---------0-2-3--2----------|
|-2-0-2-0------------0-2-2-|---0-2-0-----2------0-||-2-0-2-0------------0-2-2--|


  S S S S e e E E E. S   S S S S e e E. S S S S S   S S S S e e E E a Q
|----------------------|--------------------------|----------------------|
|----------------------|--------------------------|-----------------2h4--|
|---------0-2-3--------|---------0-2-3--2---------|---------0-2----------|
|---0-2-0------------0-|-2-0-2-0------------0-2-0-|-2-0-2-0-----2--------|


  S S S S e e E. S S S S S   S S S S e e E E E. S   S S S S e e E. S S S S S
|--------------------------|----------------------|---------------------------|
|--------------------------|----------------------|---------------------------|
|---------0-2-3--2---------|---------0-2-3--------|---------0-2-3--2----------|
|-2-0-2-0------------0-2-0-|-2-0-2-0------------0-|-2-0-2-0------------0-2-0--|


                         Pre-Chorus
  S S S S e e e e E. S    S S S S e e E. S S S S S
|----------------------||--------------------------|
|---------------4------||--------------------------|
|---------0-2----------||---------0-2-3--2---------|
|-2-0-2-0-----2------0-||-2-0-2-0------------0-2-0-|


              T T T
              |-3-|
  S S S S e e S S S  Q   +E
|-------------------13--(13)\--|
|------------------------------|
|---------0-2------------------|
|-2-0-2-0-----x-x-x------------|


                                                  Chorus
  S S S S e e E. S S S S S   S S S S e e e E Q     Q.   E Q.   E
|--------------------------|--------------------||---------------|
|--------------------------|--------------------||-5------4------|
|---------0-2-3--2---------|---------0-2--------||-3------2------|
|-2-0-2-0------------0-2-0-|-2-0-2-0-----2------||---------------|


  Q.   E E e S e S   Q.   E Q.   E   Q.   e E e S e S
|------------------|---------------|------9-----------|
|------------------|-5------4------|------------------|
|------------------|-3------2------|------------------|
|-0--------0---0---|---------------|-0--------0---0---|


    Q.   E Q.   E   Q.   E E e S e S     e E E e E e S e S
||----------------|-------------------||-----------4-------|
||o-5------4------|------------------o||-------4-----------|
||o-3------2------|------------------o||-2-------------2---|
||----------------|-0--------0---0----||-------------------|


  e E E e S e S S S S S   e E E e E e S e S   e S S E e S S S S S S S S
|-------0---5---4-2-0---|-----------4-------|-----0---5---4-2-0---------|
|---------------------4-|-------4-----------|-------------------4-2-0---|
|-3---------------------|-2-------------2---|-3-----------------------3-|
|-----------------------|-------------------|---------------------------|


  e E E e E e S e S   e E E e S s S S S S S S   e E E e E e S e S
|-----------4-------|-------0---5-4-2---0-----|-----------4-------|
|-------4-----------|-----------------0---4-2-|-------4-----------|
|-2-------------2---|-3-----------------------|-2-------------2---|
|-------------------|-------------------------|-------------------|


                   Interlude
  Q  Q  e E E. S    S S S S e e E. S S S S S   S S S S e e E E E. S
|----------------||--------------------------|----------------------|
|-0--------------||--------------------------|----------------------|
|----4--3--------||---------0-2-3--2---------|---------0-2-3--------|
|--------------0-||-2-0-2-0------------0-2-2-|---0-2-0------------0-|


  S S S S e e E. S S S S S   S S S S e e e E E. S   S S S S e e E. S S S S S
|--------------------------|----------------------|---------------------------|
|--------------------------|----------------------|---------------------------|
|---------0-2-3--2---------|---------0-2----------|---------0-2-3--2----------|
|-2-0-2-0------------0-2-0-|-2-0-2-0-----2------0-|-2-0-2-0------------0-2-0--|


  S S S S e e e E E. S   S S S S e e E. S S S S S   S S S S e e e E Q
|----------------------|--------------------------|---------------------||
|----------------------|--------------------------|---------------------||
|---------0-2-3--------|---------0-2-3--2---------|---------0-2---------||
|-2-0-2-0------------0-|-2-0-2-0------------0-2-0-|-2-0-2-0-----2-------||


   Outro-Chorus
    Q.   E Q.   E   Q.   E E e S e S  6x Q.   E Q.   E
||----------------|-------------------||---------------|
||o-5------4------|------------------o||-5------4------|
||o-3------2------|------------------o||-3------2------|
||----------------|-0--------0---0----||---------------|


  Q  Q  E e S e S   Q.   E Q.   E   Q.   E E e S e S
|---------9---9---|---------------|------------------*|
|-----------------|-5------4------|------------------*|
|-----------------|-3------2------|------------------*|
|-0---------------|---------------|-0--------0---0---*|






Duration Legend
---------------
W - whole; H - half; Q - quarter; E - 8th; S - 16th; T - 32nd; X - 64th; a - acciaccatura
+ - note tied to previous; . - note dotted; .. - note double dotted
Uncapitalized letters represent notes that are staccato (1/2 duration)
Irregular groupings are notated above the duration line
Duration letters will always appear directly above the note/fret number it represents the
duration for.  Duration letters with no fret number below them represent rests.  Multi-
bar rests are notated in the form Wxn, where n is the number of bars to rest for.  Low
melody durations appear below the staff

Tablature Legend
----------------
 h   - hammer-on
 p   - pull-off
 b   - bend
 pb  - pre-bend
 r   - bend release (if no number after the r, then release immediately)
 /\  - slide into or out of (from/to "nowhere")
 s   - legato slide
 S   - shift slide
<n> - natural harmonic
[n]  - artificial harmonic
n(n) - tapped harmonic
 ~   - vibrato
 tr  - trill
 T   - tap
 TP  - trem. picking
 PM  - palm muting
\n/  - tremolo bar dip; n = amount to dip
 \n  - tremolo bar down
 n/  - tremolo bar up
/n\  - tremolo bar inverted dip
 =   - hold bend; also acts as connecting device for hammers/pulls
 <> - volume swell (louder/softer)
 x   - on rhythm slash represents muted slash
 o   - on rhythm slash represents single note slash

Misc Legend
-----------
 |  - bar
||  - double bar
||o - repeat start
o|| - repeat end
*|  - double bar (ending)
 :  - bar (freetime)
 $  - Segno
 &  - Coda
Tempo markers - <E/E./Q/Q./H/H.> = BPM(8/16=s8/s16), where s8 = swing 8ths, s16 = swing 16ths





Comments


Popular Red Hot Chili Peppers tabs & chords
A Emmit Remmus Bass Tabs
Fire 2 Bass Tabs
Spell Correctly Bass Tabs
Walkin' On Down The Road 1 Bass Tabs
Brendans Death Song 2 Chords
Goodbye Hooray Chords
Don't Forget Me 2 Tabs
Dont Forget Me Live Tabs
Hump De Bump 1 Tabs
Otherside 2 Tabs


Song lyrics



↑ Back to top | Tablatures and chords are parodies/interpretations of the original songs. You may use it for private study, scholarship, research or language learning purposes only
© 2014 AZChords.com Contact us | Privacy policy | DMCA | Add/correct tabs | Request tabs | Top 50 tabs