>
 >
Even You Brutus

Even You Brutus Guitar Tabs

Red Hot Chili Peppers - Even You Brutus chords, tabs, tablatures, lyrics

Guitar lessons | Add/correct | Request | Top 50 tabs Artists:  A B C D E F G H I J K L M N O P Q R S T U V W X Y Z 0-9

Even You Brutus Guitar Tabs – Red Hot Chili Peppers

CD, Sheet music, Poster

Do you like Even You Brutus? Share with your friends now
Bass TabsChordsChords v2Chords v3TabsUkulele
-----------------------------------------------------------------------------
EVEN YOU BRUTUS? - Red Hot Chili Peppers
-----------------------------------------------------------------------------

Tuning: Standard (EADGBe)
 

Intro:
e|--15----12----|--15----12----|--8----8------10------------10--------------|
B|--16----13----|--16----13----|--9------9-------11---------12--------------|
G|--17----14----|--17----14----|--8--------8--------10------10--------------|
D|--------------|--------------|--------------------------------------------|
A|--------------|--------------|--------------------------------------------|
E|--------------|--------------|--------------------------------------------|

Verse 1: (With wah)
e|-----------------------------------|--------------------------------------|
B|--13b15--15br13p11--13p11----------|--------------------------------------|
G|--------------------------12-------|--------------------------------------|
D|-----------------------------------|--------------------------------------|
A|-----------------------------------|--------------------------------------|
E|-----------------------------------|--------------------------------------|

e|-----------------------------------|---x--13------------------------------|
B|--13b15--15br13p11--13p11----------|--------------------------------------|
G|--------------------------12-------|--------------------------------------|
D|-----------------------------------|--------------------------------------|
A|-----------------------------------|--------------------------------------|
E|-----------------------------------|--------------------------------------|

e|-----------------------------------|--------------------------------------|
B|-----------------------------------|--------------------------------------|
G|--x-10-x-10-x-10-x-10--10----------|--8-----8-----x--x-----7------7-------|
D|-----------------------------------|--8-----8-----x--x-----9------9-------|
A|-----------------------------------|--10----10----x--x-----8------8-------|
E|-----------------------------------|--------------------------------------|

e|-----------------------------------|--13----------------------------------|
B|--13b15--15br13p11--13p11----------|--13b15 x4----------------------------|
G|--------------------------12-------|--------------------------------------|
D|-----------------------------------|--------------------------------------|
A|-----------------------------------|--------------------------------------|
E|-----------------------------------|--------------------------------------|

e|-----------------------------------|--13-----------------13-------13------|
B|--13b15--15br13p11--13p11----------|--13b15 x4-----13b15----13b15----13b15|
G|--------------------------12-------|--------------------------------------|
D|-----------------------------------|--------------------------------------|
A|-----------------------------------|--------------------------------------|
E|-----------------------------------|--------------------------------------|

                                       Ab    Eb   Bb          Dm6/F            
e|-----------------------------------|--------------------------------------|
B|-----------------------------------|--4----8----6----6---x---6----6-------|
G|--x-10-x-10-x-10-x-10--10----------|--5----8----7----7---x---7----7-------|
D|-----------------------------------|--6----8----8----8---x---9----9-------|
A|-----------------------------------|--6----6----8----8---x---8----8-------|
E|-----------------------------------|--------------------------------------|

Bridge:
e|-----------------------------------|--------------------------------------|
B|-----------------------------------|--------------------------------------|
G|--x-8-x-8-x-8-x-8--8h10------------|--x-7-x-7-x-7-x-7h8p7-----------------|
D|-----------------------------------|----------------------8h10------------|
A|-----------------------------------|----------------------------8h10------|
E|-----------------------------------|--------------------------------------|
                                                                          x2

e|-----------------------------------|--------------------------------------|
B|-----------------------------------|--------------------------------------|
G|--x-10-x-10-x-10-x-10--10----------|--8-----8-----x--x-----11-----11------|
D|-----------------------------------|--8-----8-----x--x-----10-----10------|
A|-----------------------------------|--10----10----x--x-----12-----12------|
E|-----------------------------------|--------------------------------------|

Chorus: Listen to the song for a strumming pattern

   Gm              Dm         Dm  C#m  Cm             Gm           Dm
e|--3-----------|--5----------5---4-|--3-----------|--3------------5--------|
B|--3-----------|--6----------6---5-|--4-----------|--3------------6--------|
G|--3-----------|--7----------7---6-|--5-----------|--3------------7--------|
D|--5-----------|--7----------7---6-|--5-----------|--5------------7--------|
A|--5-----------|--5----------5---4-|--3-----------|--5------------5--------|
E|--3-----------|-------------------|--------------|--3---------------------|

   Gm              Dm         Dm  C#m  Cm             Gm
e|--3-----------|--5----------5---4-|--3-----------|--3---------------------|
B|--3-----------|--6----------6---5-|--4-----------|--3---------------------|
G|--3-----------|--7----------7---6-|--5-----------|--3---------------------|
D|--5-----------|--7----------7---6-|--5-----------|--5---------------------|
A|--5-----------|--5----------5---4-|--3-----------|--5---------------------|
E|--3-----------|-------------------|--------------|--3---------------------|

Verse 2: (With wah)
e|-----------------------------------|---x--13------------------------------|
B|--13b15--15br13p11--13p11----------|---x--13b15---------------------------|
G|--------------------------12-------|--------------------------------------|
D|-----------------------------------|--------------------------------------|
A|-----------------------------------|--------------------------------------|
E|-----------------------------------|--------------------------------------|

e|-----------------------------------|--13-----------------13-------13------|
B|--13b15--15br13p11--13p11----------|--13b15 x4-----13b15----13b15----13b15|
G|--------------------------12-------|--------------------------------------|
D|-----------------------------------|--------------------------------------|
A|-----------------------------------|--------------------------------------|
E|-----------------------------------|--------------------------------------|

e|-----------------------------------|--------------------------------------|
B|-----------------------------------|--------------------------------------|
G|--x-10-x-10-x-10-x-10--10----------|--8-----8-----x--x-----7------7-------|
D|-----------------------------------|--8-----8-----x--x-----9------9-------|
A|-----------------------------------|--10----10----x--x-----8------8-------|
E|-----------------------------------|--------------------------------------|

Repeat Bridge

Repeat Chorus

Repeat Intro

Bridge 2: (With wah) Slightly different to the first bridge

e|-----------------------------------|--------------------------------------|
B|-----------------------------------|--------------------------------------|
G|---8--x--8--x--8--x--8--x--8-------|--x--7--x--7--x--7--x--7--------------|
D|---10-x--10-x--10-x--10-x--10------|--x--8--x--8--x--8--x--8--------------|
A|-----------------------------------|--------------------------------------|
E|-----------------------------------|--------------------------------------|
                                                                          x2 

e|-----------------------------------|--------------------------------------|
B|-----------------------------------|--------------------------------------|
G|---10--x--10--x--10--x--10---------|--8---8---------------11----11--------|
D|---12--x--12--x--12--x--12---------|--8---8---------------10----10--------|
A|-----------------------------------|--10--10--------------12----12--------|
E|-----------------------------------|--------------------------------------|

Chorus x2

As the song ends, Josh plays this final chord:
   
   Gm/maj7
e|-------------| 
B|---7-- ------|
G|---7---------|
D|---8---------|
A|---10--------|
E|-------------|



************************************

| /   slide up
| \   slide down
| h   hammer-on
| p   pull-off
| ~   vibrato
| +   harmonic
| x   Mute note
| b   Bend
| pb  Pre-bend
| br  Bend release
| pbr Pre-bend release
| brb Bend release bend

************************************





Comments


Popular Red Hot Chili Peppers tabs & chords
Goodbye Hooray 3 Bass Tabs
Sexy Mexican Maid 1 Bass Tabs
The Zephyr Song Bass Tabs
Brothers Cup 1 Tabs
Cant Stop Riff Tabs
Dosed By Mick Maggot Tabs
Higher Ground 2 Tabs
My Friends Tabs
Scar Tissue 4 Tabs
The Greeting Song Tabs


Song lyrics



↑ Back to top | Tablatures and chords are parodies/interpretations of the original songs. You may use it for private study, scholarship, research or language learning purposes only
© 2014 AZChords.com Contact us | Privacy policy | DMCA | Add/correct tabs | Request tabs | Top 50 tabs