>
 >
Even You Brutus

Even You Brutus Bass Tabs

Red Hot Chili Peppers - Even You Brutus chords, tabs, tablatures, lyrics

Guitar lessons | Add/correct | Request | Top 50 tabs Artists:  A B C D E F G H I J K L M N O P Q R S T U V W X Y Z 0-9

Even You Brutus Bass Tabs – Red Hot Chili Peppers

CD, Sheet music, Poster

Do you like Even You Brutus? Share with your friends now
Bass TabsChordsChords v2Chords v3TabsUkulele
Hey guys, I had to tab this song out, I think its one of the main songs people 
want to play off of I'm With You. I'm a huge Chili's fan 
and I try to play as much Flea as I can! So here it is! Enjoy!!

Red Hot Chili Peppers, Flea
I'm With You
"Even You, Brutus?"



Tune E string to E flat

Come in at :22

Verse 1

"God is good, and fate is great"

G  |-----------------------------55-----------------------------------------|
D  |------------------------------------------------------------------------| 
A  |-3-x3-3--------------1-3-x3-------------------------------------2-x2-3--|
Eb |--------x0-4-x4-444-------------0-4-x4-4-x\7--2-x2-2-x2--0~-x0----------|

G  |-------5---------------------5----------------------------------------|
D  |-------------------------------5--------------------------6----8-\9---|
A  |-3-x3----------------1-3-x3-----6---------------------------6---------|
Eb |--------x0-4-x4-444---------------4-x4-4-x\7--2-x2-2-x2---------------|



"…People try to tell me what not to do"

G  |--x5--------------------5-3----------------------------------------|
D  |------------x5--------------5-31-----------------------------------|
A  |-3---3---------------3------------------6-5-31------------6-6/9----|
Eb |-------x0-4----4-x7---------------4-x4---------2-x2-2-x2-----------|


Chorus #1 "Hey, Sister Brutus"

G  |-----------10----10h12-10-------------------5-----------------------------|
D  |-----10h12----12----------12-10---------5h7--5-3---------------5----------|
A  |-10~-----------------------------13---------------3~-33-5-3-1-----5~-5-8--|
Eb |------------------------------------11b-----------------------4~----------|



"Hey, Sister Judas"

G  |-----------12--10-----------------------------------------------------------|
D  |-----10h12-------10---------------------------------------------------------|
A  |-10b~---------------8------8\10-10h11h10-8-10-12-10p8--3~-3~-3-1------------|
Eb |-----------------------11b-----------------------------------------4~-4~-4~-|


Verse 2

"She was the cutest damn thing"

G  |----------------------------------------------------------------------------------|
D  |---------------------8------8h10-8------------------------------------------------|
A  |-3-x3-3-----------------------------10-8-x6--------------------------------2-x2-3-|
Eb |--------x0-0-4-x4--7---7-89-----------------4-x4-4-x\7--2-x2-2-x2--0~-x0----------|



"I guess I never told ya some things"

G  |---x5----------------------------3---5---------------------------------------|
D  |----------------3-1--------x3h5----5-----------------------------------------|
A  |-3----3--x6---------3-1--3-------------6------------------------6-6/9-9------|
Eb |------------4-4--------------------------4-x4-4-x\7--2-x2-2-x2---------------|


Chorus 2

"Hey, Sister Brutus"

G  |-------10h1212-1010----------------------------------------------------------|
D  |--------------------10-------------8-10-11-10-8------------------------------|
A  |-10~b-----------------8------8h10---------------10-8b--3-3-5-3-1-------5~-5--|
Eb |------------------------11~b--------------------------------------4~-4-------|


"Hey, Sister Judas" 

G  |-----------------10h12p10--------------------------------------------------------|
D  |------8h10-10h12----------12-10-8-10---------------------------------------------|
A  |-10~b--------------------------------8~------8-10h12-10p8--3~-3-3-1--------------|
Eb |-----------------------------------------11~b------------------------4~-4-44-16/~|


Break


Verse 3

"I'm not trying to point fingers at you" 

G  |---x5---------------------------------------------------------------|
D  |--------------------------------------------------------------------|
A  |-3----36-36------------3-x3-3-x6------------------------6-6/9-9-----|
Eb |------------4-x4-4-x7------------4-x4-4-x/7--2-x2-2-x2--------------|



Chorus 3

"Hey, Sister Brutus"


G  |-------------10----10h12-10----------------------------------------|
D  |-------10h12----12----------12-------------------10----------------|
A  |-10~b--------------------------8------8/10-10/12-----12-10/8-10/8--|
Eb |---------------------------------11~b------------------------------|


(Chorus 3 continued)
                                           
G  |--------------------------------------------------------------------|
D  |----------------3---------------------------------------------------|
A  |-3-5-6-5-3-1------5~-5/8--------------------------------------------|
Eb |-------------44-----------------------------------------------------|



"Hey, Sister Judas"

G  |----------------------------------------------------------------------------------|
D  |----------8h10-8h10/12h15p12-10/8-----5h7-53-5h7-53-53----------------------------|
A  |-10~-8h10--------------------------5b------------------3-3-5-6-5-3-1---5/8-5~-5/8-|
Eb |---------------------------------------------------------------------4------------|



G  |------------------10----------------------------------------------------------------|
D  |--------8-8-10h12----12-10h12-10h12-10-8h10-8--53~-----------3h5--------------------|
A  |-10~-10------------------------------------------------3-3-5-----5-3-1---5/8-5~-5/8-|
Eb |----------------------------------------------------------------------4-4-----------|



G  |----------10h12-12h15-12---------------------------------------------------------|
D  |----10h12----------------10h12-10h12-10--8-7-5-3----------3h5-3------------------|
A  |-10------------------------------------------------3~-3h5-------5-3-1------------|
Eb |-----------------------------------------------------------------------44-44-4~~~|
-





Comments


Popular Red Hot Chili Peppers tabs & chords
Cant Stop 6 Bass Tabs
Instrumental #1 2 Bass Tabs
Police Helicopter 1 Bass Tabs
Religion 1 Bass Tabs
Show Me Your Soul 1 Bass Tabs
Dont Forget Me Live Intro Tabs
Dosed Tabs
Fela's Cock Tabs
Havana Affair 1 Tabs
Tearjecker Tabs


Song lyrics



↑ Back to top | Tablatures and chords are parodies/interpretations of the original songs. You may use it for private study, scholarship, research or language learning purposes only
© 2014 AZChords.com Contact us | Privacy policy | DMCA | Add/correct tabs | Request tabs | Top 50 tabs