» » »

Red Hot Chili Peppers, Ethiopia Tabs (ver.2)

Artists:  A B C D E F G H I J K L M N O P Q R S T U V W X Y Z # 

Ethiopia Tabs (ver.2)

Red Hot Chili Peppers Tabs
Rating:
0/5 (0 votes)
Ethiopia lessons Tabs too difficult? Try these video lessons and learn fast
                
Tuning: Standard

e|---------------------------------------------------------------------------|
B|---------------------------------------------------------------------------|
G|-99---77-9-------------9---77-9--------------------------------------------|
D|------------1010-----------------1010-------------7-----7------------------|
A|-----------------------------------------------5/7---5/7-------------------|
E|---------------------------------------------------------------------------|

e|---------------------------------------------------------------------------|
B|---------------------------------------------------------------------------|
G|-9---77-9-------------9---77-9---------------------------------------------|
D|------------1010-----------------1010-------------7-----7------------------|
A|-----------------------------------------------5/7---5/7-------------------|
E|---------------------------------------------------------------------------|

e|---------------------------------------------------------------------------|
B|---------------------------------------------------------------------------|
G|-9---77-9-------------9---77-9---------------------------------------------|
D|------------1010-----------------1010-------------7-----7------------------|
A|-----------------------------------------------5/7---5/7-------------------|
E|---------------------------------------------------------------------------|


	 Am		C		Dsus2		C
e|-------5--------------8-----------------5-------------8--------------------|
B|-------5--------------8-----------------5-------------8--------------------|
G|-------5--------------9-----------------7-------------9--------------------|
D|-------7--------------10----------------7-------------10-------------------|
A|-------7--------------10----------------5-------------10-------------------|
E|-------5--------------8-----------------5-------------8--------------------|

	 Am		C		Dsus2		Em
e|-------5--------------8-----------------5-------------7--------------------|
B|-------5--------------8-----------------5-------------8--------------------|
G|-------5--------------9-----------------7-------------9--------------------|
D|-------7--------------10----------------7-------------9--------------------|
A|-------7--------------10----------------5-------------7--------------------|
E|-------5--------------8-----------------5-------------7--------------------|

	 Am		C		Dsus2		C
e|-------5--------------8-----------------5-------------8--------------------|
B|-------5--------------8-----------------5-------------8--------------------|
G|-------5--------------9-----------------7-------------9--------------------|
D|-------7--------------10----------------7-------------10-------------------|
A|-------7--------------10----------------5-------------10-------------------|
E|-------5--------------8-----------------5-------------8--------------------|

	 Am		C		Dsus2		Em
e|-------5--------------8-----------------5-------------7--------------------|
B|-------5--------------8-----------------5-------------8--------------------|
G|-------5--------------9-----------------7-------------9--------------------|
D|-------7--------------10----------------7-------------9--------------------|
A|-------7--------------10----------------5-------------7--------------------|
E|-------5--------------8-----------------5-------------7--------------------|



e|------------------------------------------------------------------------------|
B|------------------------------------------------------------------------------|
G|---------------------7b10br7--5---5-------------------------------------------|
D|----5--------7-10-7------------/7-----5---------------------------------------|
A|--5---7--10------------------------/7---7---3/5\3-----------------------------|
E|-------------------------------------------------5----------------------------|


	C5
e|------88-------------------------------------------------------------------|
B|------88-------------------------------------------------------------------|
G|------55-------------------------------------------------------------------|
D|------------------------------7------7-------------------------------------|
A|---------------------------5/7----5/7--------------------------------------|
E|---------------------------------------------------------------------------|

	 Am		C		Dsus2		C
e|-------5--------------8-----------------5-------------8--------------------|
B|-------5--------------8-----------------5-------------8--------------------|
G|-------5--------------9-----------------7-------------9--------------------|
D|-------7--------------10----------------7-------------10-------------------|
A|-------7--------------10----------------5-------------10-------------------|
E|-------5--------------8-----------------5-------------8--------------------|

	 Am		C		Dsus2		Em
e|-------5--------------8-----------------5-------------7--------------------|
B|-------5--------------8-----------------5-------------8--------------------|
G|-------5--------------9-----------------7-------------9--------------------|
D|-------7--------------10----------------7-------------9--------------------|
A|-------7--------------10----------------5-------------7--------------------|
E|-------5--------------8-----------------5-------------7--------------------|

	 Am		C		Dsus2		C
e|-------5--------------8-----------------5-------------8--------------------|
B|-------5--------------8-----------------5-------------8--------------------|
G|-------5--------------9-----------------7-------------9--------------------|
D|-------7--------------10----------------7-------------10-------------------|
A|-------7--------------10----------------5-------------10-------------------|
E|-------5--------------8-----------------5-------------8--------------------|

	 Am		C		Dsus2		Em
e|-------5--------------8-----------------5-------------7--------------------|
B|-------5--------------8-----------------5-------------8--------------------|
G|-------5--------------9-----------------7-------------9--------------------|
D|-------7--------------10----------------7-------------9--------------------|
A|-------7--------------10----------------5-------------7--------------------|
E|-------5--------------8-----------------5-------------7--------------------|


	 D6
e|-------7-------------------------------------------------------------------|
B|-------7-------------------------------------------------------------------|
G|-------7-------------------------------------------------------------------|
D|-------7---------------------5---------------------------------------------|
A|-------------------------5-7----7--5-7-5h7---------------------------------|
E|---------------------------------------------------------------------------|

e|----------|----------------------------------------------------------------|
B|----------|----------------------------------------------------------------|
G|----------|----------------------------------------------------------------|
D|-------5--|----------------------------------------------------------------|
A|----5h7---|--7-------------------------------------------------------------|
E|----------|----------------------------------------------------------------|


e|---------------------------------------------------------------------------|
B|---------------------------------------------------------------------------|
G|------77-9-------------9---77-9--------------------------------------------|
D|------------1010-----------------1010-------------7-----7------------------|
A|-----------------------------------------------5/7---5/7-------------------|
E|---------------------------------------------------------------------------|


e|---------------------------------------------------------------------------|
B|---------------------------------------------------------------------------|
G|-9---77-9-------------9---77-9---------------------------------------------|
D|------------1010-----------------1010-------------7-----7------------------|
A|-----------------------------------------------5/7---5/7-------------------|
E|---------------------------------------------------------------------------|


	 Am		C		Dsus2		C
e|-------5--------------8-----------------5-------------8--------------------|
B|-------5--------------8-----------------5-------------8--------------------|
G|-------5--------------9-----------------7-------------9--------------------|
D|-------7--------------10----------------7-------------10-------------------|
A|-------7--------------10----------------5-------------10-------------------|
E|-------5--------------8-----------------5-------------8--------------------|

	 Am		C		Dsus2		Em
e|-------5--------------8-----------------5-------------7--------------------|
B|-------5--------------8-----------------5-------------8--------------------|
G|-------5--------------9-----------------7-------------9--------------------|
D|-------7--------------10----------------7-------------9--------------------|
A|-------7--------------10----------------5-------------7--------------------|
E|-------5--------------8-----------------5-------------7--------------------|

	 Am		C		Dsus2		C
e|-------5--------------8-----------------5-------------8--------------------|
B|-------5--------------8-----------------5-------------8--------------------|
G|-------5--------------9-----------------7-------------9--------------------|
D|-------7--------------10----------------7-------------10-------------------|
A|-------7--------------10----------------5-------------10-------------------|
E|-------5--------------8-----------------5-------------8--------------------|

	 Am		C		Dsus2		Em
e|-------5--------------8-----------------5-------------7--------------------|
B|-------5--------------8-----------------5-------------8--------------------|
G|-------5--------------9-----------------7-------------9--------------------|
D|-------7--------------10----------------7-------------9--------------------|
A|-------7--------------10----------------5-------------7--------------------|
E|-------5--------------8-----------------5-------------7--------------------|


e|----------|----------------------------------------------------------------|
B|----------|----------------------------------------------------------------|
G|----------|----------------------------------------------------------------|
D|-------5--|----------------------------------------------------------------|
A|----5h7---|--7-------------------------------------------------------------|
E|----------|----------------------------------------------------------------|

e|-----4---------------------------------------------------------------------|
B|-----5---------------------------------------------------------------------|
G|-----5---------------------------------------------------------------------|
D|---------------------------------------------------------------------------|
A|---------------------------------------------------------------------------|
E|---------------------------------------------------------------------------|


************************************

| /   slide up
| \   slide down
| h   hammer-on
| p   pull-off
| ~   vibrato
| +   harmonic
| x   Mute note
| b   Bend
| pb  Pre-bend
| br  Bend release
| pbr Pre-bend release
| brb Bend release bend

************************************
            
Submit corrections

comments powered by Disqus
↑ Back to top | Red Hot Chili Peppers Tabs for Ethiopia. Lyrics for acoustic guitar and electric guitar. Tablatures and chords are parodies/interpretations of the original songs. You may use it for private study, scholarship, research or language learning purposes only