>
 >
Ethiopia 3

Ethiopia 3 Bass Tabs

Red Hot Chili Peppers - Ethiopia 3 chords, tabs, tablatures, lyrics

Guitar lessons | Add/correct | Request | Top 50 tabs Artists:  A B C D E F G H I J K L M N O P Q R S T U V W X Y Z 0-9

Ethiopia 3 Bass Tabs – Red Hot Chili Peppers

CD, Sheet music, Poster

Do you like Ethiopia 3? Share with your friends now
Bass TabsBass Tabs v2Bass Tabs v3ChordsTabsTabs v2Tabs v3Tabs v4Ukulele
-------------------------------------------------------------------------------
			     Ethiopia - Red Hot Chili Peppers
-------------------------------------------------------------------------------


Tuning: Standard

Verse:

G|---------------------------------------------------------------------|
D|-77---7---7-7---55---5---5-5----33---3---3-3-----1212----12----10-10-|
A|---------------------------------------------------------------------|
E|----5---5--5--x----3---3--3---x----1---1--1---x-------10----10---8---|

Chorus:

1st ending:

G|---------------------------------------------------------------------|
D|---------------------------------------------------------------------|
A|-------3-5-3-----------------------3-5-3-----------------------------|
E|-5--5--------3--3--133-1-3-1--5--5--------10--10-10/12-10-8-10-------|

2nd ending:

G|-------------------------------------------------------------|
D|-------------------------------------------------------------|
A|-------3-5-3-----------------------3-5-3---------------------|
E|-5--5--------3--3--133-1-3-1--5--5--------10--10-12-12-------|

Back to Verse.

Break/Bridge:

G|--------------|
D|-----------2--|
A|-------2-5----|
E|-0-3-5--------|

Guitar solo is same as verse.

Outro:

G|----------------------------|
D|----------------------------|
A|----------------------5--5--| x3
E|-5--5-7-8-7-57-5-5-7-8--5-5-|

Then

G|--------------------------------|
D|-------------------7-5----------|
A|-----------------------7p5--5---| x1
E|-5--5-7-8-7-57-5-5---------8--5-|

G|--------------------------------|
D|--------------------------------|
A|-----------------------3--5-----| x1
E|-5--5-7-8-7-57-5-0-3-5--5---5---|

Repeat to fade.

| /  slide up
| \  slide down
| h  hammer-on
| p  pull-off
| ~  vibrato
| +  harmonic
| x  Mute note
===============================================================================





Comments


Popular Red Hot Chili Peppers tabs & chords
Blackeyed Blonde Bass Tabs
Bob Bass Tabs
Bunker Hill Bass Tabs
Mellowship Slinky In Bminor Bass Tabs
Aeroplane Chords
Dani California 1 Chords
Californication, Exclusive Tabs
Give It Away Live Tabs
The Power Of Equality 2 Tabs
The Righteous And The Wicked Tabs


Song lyrics



↑ Back to top | Tablatures and chords are parodies/interpretations of the original songs. You may use it for private study, scholarship, research or language learning purposes only
© 2014 AZChords.com Contact us | Privacy policy | DMCA | Add/correct tabs | Request tabs | Top 50 tabs