>
 >
Cmon Girl

Cmon Girl Guitar Tabs

Red Hot Chili Peppers - Cmon Girl chords, tabs, tablatures, lyrics

Guitar lessons | Add/correct | Request | Top 50 tabs Artists:  A B C D E F G H I J K L M N O P Q R S T U V W X Y Z 0-9

Cmon Girl Guitar Tabs – Red Hot Chili Peppers

CD, Sheet music, Poster

Do you like Cmon Girl? Share with your friends now
Bass TabsBass Tabs v2ChordsTabsTabs v2Ukulele
C'MON GIRL-RED HOT CHILI PEPPERS-STADIUM ARCADIUM
Standard Tuning

Note: v=vibrato   p=pull off   h=hammer on   x=muted strum   b=bend

Noticed that there was several guitar pro tabs for this, but just one normal tab, that 
quite poor, so I thought I would have a go myself

Intro (Close notes are just a broken Em minor chord)

e|-----7------7-----7-----7-----7-----7-----7------7-----------------------|
B|----8------8-----8-----8-----8-----8-----8------8------------------------|
G|---9------9-----9-----9-----9-----9-----9------9-------------------------|
D|--9------9-----9-----9-----9-----9-----9------9--------------------------|
A|-7------7-----7-----7-----7-----7-----7------7---------------------------|
E|-------------------------------------------------------------------------|

Verse 1:

e|-------------------------------------------------------------------------|
B|-------------------------------------------------------------------------|
G|-------------12-12------------------7-7----------------9-9---------------|
D|-------12-12-------12-12--------7-7-----7-7--------9-9-----9-9-----------|
A|-10-10----------------------5-5----------------7-7-----------------------|
E|-------------------------------------------------------------------------|

e|----------------------7-----7-----7-----7--------------------------------|
B|---------------------8-----8-----8-----8---------------------------------|
G|---------5-5--------9-----9-----9-----9----------------------------------|
D|-----5-5-----5-5---9-----9-----9-----9-----------------------------------|
A|-3-3--------------7-----7-----7-----7------------------------------------|
E|-------------------------------------------------------------------------|

e|-------------------------------------------------------------------------|
B|-------------------------------------------------------------------------|
G|-------------12-12------------------7-7----------------9-9---------------|
D|-------12-12-------12-12--------7-7-----7-7--------9-9-----9-9-----------|
A|-10-10----------------------5-5----------------7-7-----------------------|
E|-------------------------------------------------------------------------|

e|----------------------7-----7-----7-----7--------------------------------|
B|---------------------8-----8-----8-----8---------------------------------|
G|---------5-5--------9-----9-----9-----9----------------------------------|
D|-----5-5-----5-5---9-----9-----9-----9-----------------------------------|
A|-3-3--------------7-----7-----7-----7------------------------------------|
E|-------------------------------------------------------------------------|

e|-------------------------------------------------------------------------|
B|-------------------------------------------------------------------------|
G|-------------12-12------------------7-7----------------9-9---------------|
D|-------12-12-------12-12--------7-7-----7-7--------9-9-----9-9-----------|
A|-10-10----------------------5-5----------------7-7-----------------------|
E|-------------------------------------------------------------------------|

e|-------------------------------------------------------------------------|
B|-------------------------------------------------------------------------|
G|---------5-5-------------------12-12------------------7-7----------------|
D|-----5-5-----5-5---------12-12-------12-12--------7-7-----7-7------------|
A|-3-3---------------10-10----------------------5-5------------------------|
E|-------------------------------------------------------------------------|

e|----------------------------------------7-----7-----7-----7--------------|
B|---------------------------------------8-----8-----8-----8---------------|
G|---------9-9--------------5-5---------9-----9-----9-----9----------------|
D|-----9-9-----9-9------5-5-----5-5----9-----9-----9-----9-----------------|
A|-7-7--------------3-3---------------7-----7-----7-----7------------------|
E|-------------------------------------------------------------------------|

e|-----5--------3--------3--------5--------5--------3--------3--------5----|
B|-----5--------5--------3--------7--------5--------5--------3--------7----|
G|-----5--------5--------4--------7--------5--------5--------4--------7----|
D|-----7--------5--------5--------7--------7--------5--------5--------7----|
A|-----7----3-3-3--------5----5-5-5--------7----3-3-3--------5----5-5-5----|
E|-5-5-5-------------3-3-3-------------5-5-5-------------3-3-3-------------|

e|-7-7-7-7-7-7-7-7-7-7-7-7-7-7-7-7----7-7-7-7-7-7-7-7-7-7-7-7-7-7-7-7------|
B|-7-7-7-7-7-7-7-7-7-7-7-7-7-7-7-7----7-7-7-7-7-7-7-7-7-7-7-7-7-7-7-7------|
G|-9-9-9-9-9-9-9-9-9-9-9-9-9-9-9-9----8-8-8-8-8-8-8-8-8-8-8-8-8-8-8-8------|
D|-9-9-9-9-9-9-9-9-9-9-9-9-9-9-9-9----9-9-9-9-9-9-9-9-9-9-9-9-9-9-9-9------|
A|-9-9-9-9-9-9-9-9-9-9-9-9-9-9-9-9----9-9-9-9-9-9-9-9-9-9-9-9-9-9-9-9------|
E|-7-7-7-7-7-7-7-7-7-7-7-7-7-7-7-7----7-7-7-7-7-7-7-7-7-7-7-7-7-7-7-7------|

Chorus (with distortion):

e|-----------------------------------------------------------------------|
B|-----------------------------------------------------------------------|
G|-9-9-x-12--------------------9-9-x-12----------------------------------|
D|-9-9-x-12--12-12--9--12------9-9-x-12--12-12--9--12--------------------|
A|-7-7-x-10--12-12--9--12------7-7-x-10--12-12--9--12--------------------|
E|-----------10-10--7--10----------------10-10--7--10--------------------|x4

Then:

e|-----7-----7-----7-----7-------------------------------------------------|
B|----8-----8-----8-----8--------------------------------------------------|
G|---9-----9-----9-----9---------------------------------------------------|
D|--9-----9-----9-----9----------------------------------------------------|
A|-7-----7-----7-----7-----------------------------------------------------|
E|-------------------------------------------------------------------------|

Verse 2:

e|-------------------------------------------------------------------------|
B|-------------------------------------------------------------------------|
G|-------------12-12------------------7-7----------------9-9---------------|
D|-------12-12-------12-12--------7-7-----7-7--------9-9-----9-9-----------|
A|-10-10----------------------5-5----------------7-7-----------------------|
E|-------------------------------------------------------------------------|

e|----------------------7-----7-----7-----7--------------------------------|
B|---------------------8-----8-----8-----8---------------------------------|
G|---------5-5--------9-----9-----9-----9----------------------------------|
D|-----5-5-----5-5---9-----9-----9-----9-----------------------------------|
A|-3-3--------------7-----7-----7-----7------------------------------------|
E|-------------------------------------------------------------------------|

e|-------------------------------------------------------------------------|
B|-------------------------------------------------------------------------|
G|-------------12-12------------------7-7----------------9-9---------------|
D|-------12-12-------12-12--------7-7-----7-7--------9-9-----9-9-----------|
A|-10-10----------------------5-5----------------7-7-----------------------|
E|-------------------------------------------------------------------------|

e|----------------------7-----7-----7-----7--------------------------------|
B|---------------------8-----8-----8-----8---------------------------------|
G|---------5-5--------9-----9-----9-----9----------------------------------|
D|-----5-5-----5-5---9-----9-----9-----9-----------------------------------|
A|-3-3--------------7-----7-----7-----7------------------------------------|
E|-------------------------------------------------------------------------|

e|-------------------------------------------------------------------------|
B|-------------------------------------------------------------------------|
G|-------------12-12------------------7-7----------------9-9---------------|
D|-------12-12-------12-12--------7-7-----7-7--------9-9-----9-9-----------|
A|-10-10----------------------5-5----------------7-7-----------------------|
E|-------------------------------------------------------------------------|

e|-------------------------------------------------------------------------|
B|-------------------------------------------------------------------------|
G|---------5-5-------------------12-12------------------7-7----------------|
D|-----5-5-----5-5---------12-12-------12-12--------7-7-----7-7------------|
A|-3-3---------------10-10----------------------5-5------------------------|
E|-------------------------------------------------------------------------|

e|----------------------------------------7-----7-----7-----7--------------|
B|---------------------------------------8-----8-----8-----8---------------|
G|---------9-9--------------5-5---------9-----9-----9-----9----------------|
D|-----9-9-----9-9------5-5-----5-5----9-----9-----9-----9-----------------|
A|-7-7--------------3-3---------------7-----7-----7-----7------------------|
E|-------------------------------------------------------------------------|

e|-----5--------3--------3--------5--------5--------3--------3--------5----|
B|-----5--------5--------3--------7--------5--------5--------3--------7----|
G|-----5--------5--------4--------7--------5--------5--------4--------7----|
D|-----7--------5--------5--------7--------7--------5--------5--------7----|
A|-----7----3-3-3--------5----5-5-5--------7----3-3-3--------5----5-5-5----|
E|-5-5-5-------------3-3-3-------------5-5-5-------------3-3-3-------------|

e|-7-7-7-7-7-7-7-7-7-7-7-7-7-7-7-7----7-7-7-7-7-7-7-7-7-7-7-7-7-7-7-7------|
B|-7-7-7-7-7-7-7-7-7-7-7-7-7-7-7-7----7-7-7-7-7-7-7-7-7-7-7-7-7-7-7-7------|
G|-9-9-9-9-9-9-9-9-9-9-9-9-9-9-9-9----8-8-8-8-8-8-8-8-8-8-8-8-8-8-8-8------|
D|-9-9-9-9-9-9-9-9-9-9-9-9-9-9-9-9----9-9-9-9-9-9-9-9-9-9-9-9-9-9-9-9------|
A|-9-9-9-9-9-9-9-9-9-9-9-9-9-9-9-9----9-9-9-9-9-9-9-9-9-9-9-9-9-9-9-9------|
E|-7-7-7-7-7-7-7-7-7-7-7-7-7-7-7-7----7-7-7-7-7-7-7-7-7-7-7-7-7-7-7-7------|

Then play chorus

Then:

e|-----7------7-----7-----7-----7-----7-----7------7-----------------------|
B|----8------8-----8-----8-----8-----8-----8------8------------------------|
G|---9------9-----9-----9-----9-----9-----9------9-------------------------|
D|--9------9-----9-----9-----9-----9-----9------9--------------------------|
A|-7------7-----7-----7-----7-----7-----7------7---------------------------|
E|-------------------------------------------------------------------------|

Solo 1:

e|-------------------------------------------------------------------------|
B|-------------------------------------------------------------------------|
G|----------------12-14b-14--12-14-12------11b-11--9-----------------------|
D|-12h14----12h14------------------------------------9---------------------|
A|-----------------------------------------------------12b-12-10--9-10-9-10|
E|-------------------------------------------------------------------------|

Then:

e|-------------------------------------------------------------------------|
B|-------------------------------------------------------------------------|
G|-------------12-12------------------7-7----------------9-9---------------|
D|-------12-12-------12-12--------7-7-----7-7--------9-9-----9-9-----------|
A|-10-10----------------------5-5----------------7-7-----------------------|
E|-------------------------------------------------------------------------|

e|-------------------------------------------------------------------------|
B|-------------------------------------------------------------------------|
G|---------5-5-------------------12-12------------------7-7----------------|
D|-----5-5-----5-5---------12-12-------12-12--------7-7-----7-7------------|
A|-3-3---------------10-10----------------------5-5------------------------|
E|-------------------------------------------------------------------------|

e|----------------------------------------7-----7-----7-----7--------------|
B|---------------------------------------8-----8-----8-----8---------------|
G|---------9-9--------------5-5---------9-----9-----9-----9----------------|
D|-----9-9-----9-9------5-5-----5-5----9-----9-----9-----9-----------------|
A|-7-7--------------3-3---------------7-----7-----7-----7------------------|
E|-------------------------------------------------------------------------|

e|-----5--------3--------3--------5--------5--------3--------3--------5----|
B|-----5--------5--------3--------7--------5--------5--------3--------7----|
G|-----5--------5--------4--------7--------5--------5--------4--------7----|
D|-----7--------5--------5--------7--------7--------5--------5--------7----|
A|-----7----3-3-3--------5----5-5-5--------7----3-3-3--------5----5-5-5----|
E|-5-5-5-------------3-3-3-------------5-5-5-------------3-3-3-------------|

e|-7-7-7-7-7-7-7-7-7-7-7-7-7-7-7-7----7-7-7-7-7-7-7-7-7-7-7-7-7-7-7-7------|
B|-7-7-7-7-7-7-7-7-7-7-7-7-7-7-7-7----7-7-7-7-7-7-7-7-7-7-7-7-7-7-7-7------|
G|-9-9-9-9-9-9-9-9-9-9-9-9-9-9-9-9----8-8-8-8-8-8-8-8-8-8-8-8-8-8-8-8------|
D|-9-9-9-9-9-9-9-9-9-9-9-9-9-9-9-9----9-9-9-9-9-9-9-9-9-9-9-9-9-9-9-9------|
A|-9-9-9-9-9-9-9-9-9-9-9-9-9-9-9-9----9-9-9-9-9-9-9-9-9-9-9-9-9-9-9-9------|
E|-7-7-7-7-7-7-7-7-7-7-7-7-7-7-7-7----7-7-7-7-7-7-7-7-7-7-7-7-7-7-7-7------|

Then play chorus

Solo 2 (heavy distortion and wah):

e|-------------------------------------------------------------------------|
B|-15b--15---15-12----12------15--12----12------15--12----12---------------|
G|-----------------15----------------15----------------15------------------|
D|-------------------------------------------------------------------------|
A|-------------------------------------------------------------------------|
E|-------------------------------------------------------------------------|

e|-------------------------------15b--17b--17b--17b--17b--17b--17b--17b----|
B|-15-12----12------15-12----12--------------------------------------------|
G|-------15---------------15-----------------------------------------------|
D|-------------------------------------------------------------------------|
A|-------------------------------------------------------------------------|
E|-------------------------------------------------------------------------|

e|-17b--17p15-----15h17--17b--19b----17b--17p15----------------------------|
B|------------17--------------------------------15-----15--17b-----17v-----|
G|-------------------------------------------------------------------------|
D|-------------------------------------------------------------------------|
A|-------------------------------------------------------------------------|
E|-------------------------------------------------------------------------|

THATS IT, I THINK THAT IS FAIRLY ACCURATE

ENJOY!





Comments


Popular Red Hot Chili Peppers tabs & chords
Arpeggiating Bass Tabs
Did I Let You Know Bass Tabs
Hard To Concentrate Bass Tabs
Instrumental #1 2 Bass Tabs
Out Of Range Chords
By The Way 1 Tabs
Eskimo Intro Tabs
Sex Rap Tabs
Annie Wants A Baby Ukulele
Californication Ukulele


Song lyrics



↑ Back to top | Tablatures and chords are parodies/interpretations of the original songs. You may use it for private study, scholarship, research or language learning purposes only
© 2014 AZChords.com Contact us | Privacy policy | DMCA | Add/correct tabs | Request tabs | Top 50 tabs