>
 >
Cmon Girl 1

Cmon Girl 1 Guitar Tabs

Red Hot Chili Peppers - Cmon Girl 1 chords, tabs, tablatures, lyrics

Guitar lessons | Add/correct | Request | Top 50 tabs Artists:  A B C D E F G H I J K L M N O P Q R S T U V W X Y Z 0-9

Cmon Girl 1 Guitar Tabs – Red Hot Chili Peppers

CD, Sheet music, Poster

Do you like Cmon Girl 1? Share with your friends now
Bass TabsBass Tabs v2ChordsTabsTabs v2Ukulele
    Em
e]----7~--|
B]----8~--|
G]---9----|   intro x8
D]--9-----|
A]--------|
E]--------|
                                       -you can figure out when to play it
e]---88---|--------|--------|---------|
B]-77--77-|---77---|---99---|---55----|
G]--------|-77--77-|-99--99-|-55--55--|
D]--------|--------|--------|---------|
A]--------|--------|--------|---------|
E]--------|--------|--------|---------|


   "tell me.."
e]--------------------------------|
B]--------------------------------|
G]--7h9r7h9r7h9r7h9r7h9---etc..---|
_____________________________________________________________________
pre-chorus

e]---5~-|----7~-|---3~-|-----10~-----|
B]---5~-|----7~-|---3~-|-----10~-----|
G]--5---|---9---|--4---|---11--------|
D]-7----|-10----|-5----|-12----------|
A]------|-------|------|-------------|
E]------|-------|------|-------------|

__________________________________________________________________
Chorus--
dont play on the first chorus

e]-12--
B]-12--
G]--
D]--
A]--
E]--

_________________________________________________________________
cool midpoint solo's (after first chorus in order):::


e]-12r10----10h12--------------------10----10---------------|
B]-------12--------12r10-------10h12----12----12b13r12------|
G]-----------------------12-12------------------------------|
D]----------------------------------------------------------|
A]----------------------------------------------------------|
E]--------------------------------------------------at 1:18-|


e]-7b8r7-------7b8r7-------------|
B]-------8-----------8-----------|
G]-------------------------------|
D]-------------------------------|
A]-------------------------------|
E]-------------------------------| at 1:26


e]-14b15-15r14--12----------------|
B]----------------15-15-12~-------|
G]--------------------------------|
D]--------------------------------|
A]--------------------------------|
E]--------------------------------|at 1:33


e]-------------------------19r17-15--------------------------|
B]------15-------------------------15------------------------|
G]-14b16---14r12----14-12----12h14----14-12-14-14r12~--------|
D]---------------14-------14---------------------------------|
A]-----------------------------------------------------------|
E]-------------------------------------------------at 1:39---|


e]-----------------|--------------------|
B]-----------------|------12v~----------|
G]-----------------|-s11v~--------------|
D]-------12--------|--------------------|
A]-12h14---14-12p--|--------------------|
E]-----------------|--------------------|

_____________________________________________________________________
actual solo

e]-----------------------|-------------------------------|
B]--------7-9b12r9-9x9p7~|-8p7------9--------------------|
G]-7h9--9----------------|-----9-----7-------------------|
D]-----------------------|------9~-----10--9h10-9h10~----|
A]-----------------------|-------------------------------|
E]-----------------------|-------------------------------|


e]-------15r14p12--19r17p15--23r21p19-|-19p17p15---|
B]-17p15------------------------------|------------|
G]------------------------------------|------------|
D]------------------------------------|------------|
A]------------------------------------|------------|
E]------------------------------------|------------|

e]---------------------------------xx---------------|
B]-13~----15-15-15-15-15p13--17r15-xx--15p12--  <---|x6
G]-12b14--14-14-14-14-14-----------xx-------14------|
D]--------------------------------------------------|
A]--------------------------------------------------|
E]--------------------------------------------------|

e]-15b17---17b19-(x8)---19p15----x-19b21r19-xx--19-17-15------------15----|
B]----------------------------17-x----------xx-----------17-17-17-17--17~-|
G]-------------------------------x----------xx----------------------------|
D]------------------------------------------------------------------------|
A]------------------------------------------------------------------------|
E]------------------------------------------------------------------------|





Comments


Popular Red Hot Chili Peppers tabs & chords
Blues For Meister 2 Bass Tabs
If You Have To Ask 2 Bass Tabs
Savior 1 Bass Tabs
Taste The Pain 1 Bass Tabs
Brendans Death Song 2 Chords
Aeroplane 3 Tabs
I Could Die For You Tabs
This Is The Place 1 Tabs
Brandy Ukulele
Dani California Ukulele


Song lyrics



↑ Back to top | Tablatures and chords are parodies/interpretations of the original songs. You may use it for private study, scholarship, research or language learning purposes only
© 2014 AZChords.com Contact us | Privacy policy | DMCA | Add/correct tabs | Request tabs | Top 50 tabs