» » »

Can't Stop Bass tabs (ver.2)

Artists:  A B C D E F G H I J K L M N O P Q R S T U V W X Y Z # 

Can't Stop Bass tabs (ver.2)

Red Hot Chili Peppers
Rating:
0/5 (0 votes)

Hard to play? Try these video lessons and learn fast.
                ============================================================================
                   Red Hot Chili Peppers - Cant Stop
============================================================================


Intro:

g--------------------------------------------------------------------
d---------------------------------------------------Guitar-Intro-----
a--------------------------------------------------------------------
e-0-0-0-0-0-0-0-0-0-0-0-0-0-0-0-0-0-0-0-0-0-0-0-0--------------------

Verse: 

g----7-9-------7---9--------7--9---------7----9-----
d*---------------0--------------------------0-------
a*-7-----7---x--------7--5--------7----x---------7--
e----------0-------------------------0--------------
   T P P T T T P T P  T  T  P  P  T  T T P  T P  T
g---4-4------4---4---------5-5--------5---5------ 
        
Hard to play? Try these video lessons and learn fast. | Correct




comments powered by Disqus
↑ Back to top | Tablatures and chords are parodies/interpretations of the original songs. You may use it for private study, scholarship, research or language learning purposes only