» » »

Red Hot Chili Peppers, Can't Stop Tabs (ver.3)

Artists:  A B C D E F G H I J K L M N O P Q R S T U V W X Y Z # 

Can't Stop Tabs (ver.3)

Red Hot Chili Peppers Tabs
 Rating:
4/5 (4 votes)
Can't Stop lessons Tabs too difficult? Try these video lessons and learn fast
                Can’t Stop (I know on the name for the tab it has can stop but i put can't stop they just changed it!!)

Introduction
E--------------------------------------------------------------------
B--------------------------------------------------------------------
G--------------------------------------------------------------------
D--------------------------------------------------------------------
A---5h7-5h7-5h7-5h7-5-7-5h7-5h7-5h7-5h7-5-7------------------------x4
E--------------------------------------------------------------------
When you have played it 3 times start to bend some of the fret sevens (listen to the song and you'll know what i mean)

Verse
E-----------------------------------------------------------------
B-----------------------------------------------------------------
G----7-9----7-9------7-9-----7-9------7-9-----7-9-----7-9------7-9
D-----------------0-----000------00-------------------------------
A-77----777----77-------------------------------------------------
E-----------------------------------7-----777-----778------888----
Chorus     
E-7---x---2---x--------------------------------
B-8---7---3---5--------------------------------
G-9---7---4---5--------------------------------	
D-9---7---4---5--------------------------------
A-7---5---2---3-------------------------------- 
E----------------------------------------------listen to the song to see how many  times you play each chord

Bridge       Play the 1st part twice then move onto the second part     
                               And play that twice.
      
Part 1 (play part 1 twice)       (Play this part fast)                               
E------12-x-x4--10-x-x4-7-x-x4-8-x-x4--12--x4--10---x4-7--x4-8--x4
B------12-x-----10-x-—--7-x----8-x-------12--x4--10--x4-7--x4-8- x4
G------12-x-----9--x----7-x----9-x---------12--x4--9--x4-7--x4-9  x4 <- part2
D---------------------------------------------------------------
A---------------------------------------------------------------
E---------------------------------------------------------------

Part 1(play part 1 twice) - Guitar 2 plays this again while guitar one plays the fast part
E------12-x-x4--10-x-x4-7-x-x4-8-x-x4--
B------12-x-----10-x-&#8212;--7-x----8-x-----
G------12-x-----9--x----7-x----9-x-----
D--------------------------------------
A--------------------------------------
E--------------------------------------                     

Solo (with a little bit of distortion)
E&#8212;12~12-10~10-7~7-3~--12~12b-10~10b-7~-10-5-3--------------
B----------------------------------------------------------
G----------------------------------------------------------
D----------------------------------------------------------
A----------------------------------------------------------
E----------------------------------------------------------         

Order:         
Intro 
Verse x 5
Chorus x 2
Verse x 4
Chorus x 2
Bridge x 1
Solo x 1
Verse x 3

 I think that this tab is about right. Please rate it cos it&#8217;s my first tab.
            
Submit corrections

comments powered by Disqus
↑ Back to top | Red Hot Chili Peppers Tabs for Can't Stop. Lyrics for acoustic guitar and electric guitar. Tablatures and chords are parodies/interpretations of the original songs. You may use it for private study, scholarship, research or language learning purposes only