» » »

Cabron 1 Tabs

Artists:  A B C D E F G H I J K L M N O P Q R S T U V W X Y Z # 

Cabron 1 Tabs

(ver. 2)
Red Hot Chili Peppers Tabs
 Rating:
4/5 (4 votes)
    Cabron lessons Tabs too difficult? Try these video lessons and learn fast
                Intro
Gtr Capoed at 7th

|-3--------|-0--------|-3--------|-0--------|
|-3--------|-0--------|-3--------|-0--------|
|-0--------|-0--------|-0--------|-0--------|
|-0--------|-2--------|-0--------|-2--------|
|-2--------|-2--------|-2--------|-2--------|
|-3--------|-0--------|-3--------|-0--------|


|---0-----0-----0---0-----0-------2---|
|-----1-----1---------1-----1-----3---|
|-------------0---------------0---2---|
|-------2---------------2---------0---|
|-3---------------3-------------------|
|-------------------------------------|

Verse & Chorus Riff
|                                                                    |
|---------------3---3-3---3---3-3-|----------------0---0-0---0---0-0-|
|---------------3---3-3---3---3-3-|----------------0---0-0---0---0-0-|
|-4--2--0---0---0---0-0---0---0-0-|-2--0-----------0---0-0---0---0-0-|
|---------4-----0---0-0---0---0-0-|------4--0--2---2---2-2---2---2-2-|
|---------------2---2-2---2---2-2-|----------------2---2-2---2---2-2-|
|---------------3---3-3---3---3-3-|----------------0---0-0---0---0-0-|

I'm small but I'm strong
|                                                   
|-0--0-0-0--0-0-0--0-0-0--0-0--|-2--2-2-2--2-2-2--2-2-2--2-2--|
|-1--1-1-1--1-1-1--1-1-1--1-1--|-3--3-3-3--3-3-3--3-3-3--3-3--|
|-0--0-0-0--0-0-0--0-0-0--0-0--|-2--2-2-2--2-2-2--2-2-2--2-2--|
|-2--2-2-2--2-2-2--2-2-2--2-2--|-0--0-0-0--0-0-0--0-0-0--0-0--|
|-3--3-3-3--3-3-3--3-3-3--3-3--|------------------------------|
|------------------------------|------------------------------|

If U want me to, what else can I do. 
|                                                               x2
|-3--3-3-3--3-3-3--3-3--3-3-3-3-|-0--0-0-0--0-0-0--0-0--0-0-0-0-|
|-3--3-3-3--3-3-3--3-3--3-3-3-3-|-0--0-0-0--0-0-0--0-0--0-0-0-0-|
|-0--0-0-0--0-0-0--0-0--0-0-0-0-|-0--0-0-0--0-0-0--0-0--0-0-0-0-|
|-0--0-0-0--0-0-0--0-0--0-0-0-0-|-2--2-2-2--2-2-2--2-2--2-2-2-2-|
|-2--2-2-2--2-2-2--2-2--2-2-2-2-|-2--2-2-2--2-2-2--2-2--2-2-2-2-|
|-3--3-3-3--3-3-3--3-3--3-3-3-3-|-0--0-0-0--0-0-0--0-0--0-0-0-0-|

Everyone would take a cue from anything you do.
|                                                  
|-0--0-0-0--0-0-0--0-0-0--0-0--|-2--2-2-2--2-2-2--2-2-2--2-2--|
|-1--1-1-1--1-1-1--1-1-1--1-1--|-3--3-3-3--3-3-3--3-3-3--3-3--|
|-0--0-0-0--0-0-0--0-0-0--0-0--|-2--2-2-2--2-2-2--2-2-2--2-2--|
|-2--2-2-2--2-2-2--2-2-2--2-2--|-0--0-0-0--0-0-0--0-0-0--0-0--|
|-3--3-3-3--3-3-3--3-3-3--3-3--|------------------------------|
|------------------------------|------------------------------|


If U want them to, what else can I do
|                                                               x2
|-3--3-3-3--3-3-3--3-3--3-3-3-3-|-0--0-0-0--0-0-0--0-0--0-0-0-0-|
|-3--3-3-3--3-3-3--3-3--3-3-3-3-|-0--0-0-0--0-0-0--0-0--0-0-0-0-|
|-0--0-0-0--0-0-0--0-0--0-0-0-0-|-0--0-0-0--0-0-0--0-0--0-0-0-0-|
|-0--0-0-0--0-0-0--0-0--0-0-0-0-|-2--2-2-2--2-2-2--2-2--2-2-2-2-|
|-2--2-2-2--2-2-2--2-2--2-2-2-2-|-2--2-2-2--2-2-2--2-2--2-2-2-2-|
|-3--3-3-3--3-3-3--3-3--3-3-3-3-|-0--0-0-0--0-0-0--0-0--0-0-0-0-|

I don't want to fight I want to get along with you....
|                                                             x2
|-0--0-0-0--0-0-0--0-0-0--0-0--|-2--2-2-2--2-2-2--2-2-2--2-2--|
|-1--1-1-1--1-1-1--1-1-1--1-1--|-3--3-3-3--3-3-3--3-3-3--3-3--|
|-0--0-0-0--0-0-0--0-0-0--0-0--|-2--2-2-2--2-2-2--2-2-2--2-2--|
|-2--2-2-2--2-2-2--2-2-2--2-2--|-0--0-0-0--0-0-0--0-0-0--0-0--|
|-3--3-3-3--3-3-3--3-3-3--3-3--|------------------------------|
|------------------------------|------------------------------|

Chorus & Verse
|
|---------------3---3-3---3---3-3-|----------------0---0-0---0---0-0-|
|---------------3---3-3---3---3-3-|----------------0---0-0---0---0-0-|
|-4--2--0---0---0---0-0---0---0-0-|-2--0-----------0---0-0---0---0-0-|
|---------4-----0---0-0---0---0-0-|------4--0--2---2---2-2---2---2-2-|
|---------------2---2-2---2---2-2-|----------------2---2-2---2---2-2-|
|---------------3---3-3---3---3-3-|----------------0---0-0---0---0-0-|            
Submit corrections

↑ Back to top | Red Hot Chili Peppers Tabs for Cabron. Lyrics for acoustic guitar and electric guitar. Tablatures and chords are parodies/interpretations of the original songs. You may use it for private study, scholarship, research or language learning purposes only