>
 >
Cabron

Cabron Bass Tabs

Red Hot Chili Peppers - Cabron chords, tabs, tablatures, lyrics

Guitar lessons | Add/correct | Request | Top 50 tabs Artists:  A B C D E F G H I J K L M N O P Q R S T U V W X Y Z 0-9

Cabron Bass Tabs – Red Hot Chili Peppers

CD, Sheet music, Poster

Do you like Cabron? Share with your friends now
Bass TabsBass Tabs v2Bass Tabs v3ChordsChords v2Chords v3Chords v4TabsTabs v2Tabs v3Tabs v4Ukulele



Intro
G|----|----|----|----|----|----|----|----|----|----|
D|----|----|----|----|----|----|----|----|----|----|
A|----|----|----|----|----|----|----|----|----|----|
E|----|----|----|----|----|----|----|----|----|----|

Chorus
G|-------------------|---------------|----------------------|---------------|
D|-------------------|---------------|----------------------|---------------|
A|-------------------|---------7-----|-----------------9----|---------7-----|
E|-10--10-10-12-10-9-|-7--7--7---7-9-|-10--10-10-10-12---10-|-7--7--7---7-9-|

Verse
G|--------------------|---------------|-----------------------|-------------------|-------12-------12-|
D|--------------------|---------------|-----------------------|-------------------|----12-------12----|
A|------------9-------|---------7-----|------------------9----|-----------------9-|-10-------10-------|
E|-10--10--10---12-10-|-7--7--7---7-9-|-10--10--10-10-12---10-|-7--7--7-7-10-12---|-------------------|

G|-------14-------14-|----------------------|---------------|--------------------|-----------------|-------12-------12-|
D|----14-------14----|----------------------|---------------|--------------------|-----------------|----12-------12----|
A|-12-------12-------|--------------9-------|---------7-9---|------------9-------|---------------9-|-10-------10-------|
E|-------------------|-10--10-10-10---12-10-|-7--7--7-----9-|-10--10--10---12-10-|-7--7--7-10-12---|-------------------|

G|-------14-------14-|----------------------|---------------------------|--------------------------|--------------------------|
D|----14-------14----|----------------------|---------------------------|--------------------------|--------------------------|
A|-12-------12-------|-----------------9-12-|-14--14--14-14-14-12-14-16-|-17-17-19h21-19-17--16-17-|-14--14-14-14-12----------|
E|-------------------|-10-10-10--10-10------|---------------------------|--------------------------|-----------------14-12-14-|

Pre-Chorus
G|----------------|----------------|----------------|-----------------|
D|----------------|----------------|----------------|-----------------|
A|-10--10--10--10-|-12--12--12--12-|-10--10--10--10-|-12--12--12--12--|
E|----------------|----------------|----------------|-----------------|

Interlude
G|----|----|----|----|
D|----|----|----|----|
A|----|----|----|----|
E|----|----|----|----|

Chorus
G|--------------------|---------------|--------------------|---------------|
D|--------------------|---------------|--------------------|---------------|
A|------------9-------|---------7-9---|------------9-------|---------7-9---|
E|-10--10--10---12-10-|-7--7--7-----9-|-10--10--10---12-10-|-7--7--7-----9-|


Verse
G|--------------------|---------------|-----------------------|-------------------|-------12-------12-|
D|--------------------|---------------|-----------------------|-------------------|----12-------12----|
A|------------9-------|---------7-----|------------------9----|-----------------9-|-10-------10-------|
E|-10--10--10---12-10-|-7--7--7---7-9-|-10--10--10-10-12---10-|-7--7--7-7-10-12---|-------------------|

G|-------14-------14-|----------------------|---------------|--------------------|-----------------|-------12-------12-|
D|----14-------14----|----------------------|---------------|--------------------|-----------------|----12-------12----|
A|-12-------12-------|--------------9-------|---------7-9---|------------9-------|---------------9-|-10-------10-------|
E|-------------------|-10--10-10-10---12-10-|-7--7--7-----9-|-10--10--10---12-10-|-7--7--7-10-12---|-------------------|

G|-------14-------14-|----------------------|---------------------------|--------------------------|--------------------------|
D|----14-------14----|----------------------|---------------------------|--------------------------|--------------------------|
A|-12-------12-------|-----------------9-12-|-14--14--14-14-14-12-14-16-|-17-17-19h21-19-17--16-17-|-14--14-14-14-12----------|
E|-------------------|-10-10-10--10-10------|---------------------------|--------------------------|-----------------14-12-14-|

Pre-Chorus
G|----------------|----------------|----------------|--------------------|
D|----------------|----------------|----------------|--------------------|
A|-10--10--10--10-|-12--12--12--12-|-10--10--10--10-|-12--12--12-10-9----|
E|----------------|----------------|----------------|-----------------12-|

Guitar solo
G|--------------------|---------------|--------------------|---------------|--------------------|---------------|
D|--------------------|---------------|--------------------|---------------|--------------------|---------------|
A|------------9-------|---------7-9---|------------9-------|---------7-9---|------------9-------|---------7-9---|
E|-10--10--10---12-10-|-7--7--7-----9-|-10--10--10---12-10-|-7--7--7-----9-|-10--10--10---12-10-|-7--7--7-----9-|

G|-----------------------|-----------------|
D|-----------------------|-----------------|
A|----------9-12-9-------|---------------9-|
E|-10-10-12--------12-10-|-7--7--7-10-12---|

Pre-chorus
G|---------------------|----------------------|----------------------|----------------------|
D|---------------------|----------------------|----------------------|----------------------|
A|-10--10-10-10--10-10-|-12--12-12--12--12-12-|-10--10-10--10--10-10-|-12--12-12--12--12-12-|
E|---------------------|----------------------|----------------------|----------------------|

Outro-chorus
G|--------------------|-------------|--------------------|-------------|-------------------------|-------------|
D|--------------------|-------------|--------------------|-------------|-------------------------|-------------|
A|------------9-------|---------7---|---------------9----|---------7---|--------------9----------|---------7---|
E|-10--10--10---12-10-|-7--7--7---9-|-10--10--10-12---12-|-7--7--7---9-|-10--10-10-12---12-10-12-|-7--7--7---9-|

G|--------------------|-------------|--------------------|-------------|-----------------------|-------------|
D|--------------------|-------------|--------------------|-------------|-----------------------|-------------|
A|---------------9----|---------7---|------------9-------|---------7---|------------------9----|---------7---|
E|-10--10--10-12---12-|-7--7--7---9-|-10--10--10---12-10-|-7--7--7---9-|-10--10--10-10-12---10-|-7--7--7---9-|

G|--------------------|--------------|------------------------|---------------|----------------------|--------------|
D|--------------------|--------------|------------------------|---------------|----------------------|--------------|
A|------------9-------|----------7---|-------------9----------|-----------7---|-----------9----------|----------7---|
E|-10--10--10---12-10-|-7-7--7-7---9-|-10-10-10-12---12-10-12-|-7--7--7-7---9-|-10--10-10---12-10-12-|-7--7-7-7---9-|

G|--------------------|---------------|----------------------|-------------|-------------------------|--------------|----|
D|--------------------|---------------|----------------------|-------------|-------------------------|-----------11-|-12-|
A|---------------9----|-----------7---|-----------9----------|---------7---|--------------9----------|---------7----|----|
E|-10--10--10-12---12-|-7--7--7-7---9-|-10--10-10---12-10-12-|-7--7--7---9-|-10--10-10-12---12-10-12-|-7--7--7------|----|





Comments


Popular Red Hot Chili Peppers tabs & chords
Annie Wants A Baby 3 Bass Tabs
Deep Kick 1 Bass Tabs
Good Time Boys 1 Bass Tabs
Good Time Boys 5 Bass Tabs
By The Way Chords
Blackeyed Blonde 1 Tabs
Bunker Hill Tabs
Hey 1 Tabs
Scar Tissue Outro Tabs
Tiny Dancer 2 Tabs


Song lyrics



↑ Back to top | Tablatures and chords are parodies/interpretations of the original songs. You may use it for private study, scholarship, research or language learning purposes only
© 2014 AZChords.com Contact us | Privacy policy | DMCA | Add/correct tabs | Request tabs | Top 50 tabs