>
 >
By The Way Easy Version

By The Way Easy Version Guitar Tabs

Red Hot Chili Peppers - By The Way Easy Version chords, tabs, tablatures, lyrics

Guitar lessons | Add/correct | Request | Top 50 tabs Artists:  A B C D E F G H I J K L M N O P Q R S T U V W X Y Z 0-9

By The Way Easy Version Guitar Tabs – Red Hot Chili Peppers

CD, Sheet music, Poster

Do you like By The Way Easy Version? Share with your friends now
Tabs
Red Hot Chili Peppers - By the Way

I have Tabbed the Bass for the guitarist wishing to play the song with the Bass riff
Any gripes or praise PM Frankyz84. Have fun with it.

   INTRO:
e||-------------------------|-------------------------|
b||-------------------------|-------------------------|
G||-------------------------|-------------------------|
D||-10-10-10-10-10-10-10-10-|-10-10-10-10-10-10-10-10-|
A||-8--8--8--8--8--8--8--8--|-7--7--7--7--7--7--7--7--|
E||-------------------------|-------------------------|

                                       VERSE:
e|-----------------|-----------------||-------------------------|
b|-----------------|-----------------||-------------------------|
G|-----------------|-----------------||-------------------------|
D|-----------------|-----------------||-10-10-10-10-10-10-10-10-|
A|-7-7-7-7-7-7-7-7-|-7-7-7-7-7-7-7-7-||-8--8--8--8--8--8--8--8--|
E|-5-5-5-5-5-5-5-5-|-5-5-5-5-5-5-5-5-||-------------------------|

e|------------------|-----------------|-----------------|
b|------------------|-----------------|-----------------|
G|-9-9-9-9-9-9-9-9--|-----------------|---------9-9-7-7-|
D|-7-7-7-7-7-7-7-7--|-7-7-7-7-7-7-7-7-|-7-7-7-7-9-9-7-7-|
A|------------------|-7-7-7-7-7-7-7-7-|-7-7-7-7---------|
E|------------------|-----------------|-----------------|

e||-------------------------|-------------------------|
b||-------------------------|-------------------------|
G||-------------------------|-------------------------|
D||-10-10-10-10-10-10-10-10-|-------------------------|
A||-8--8--8--8--8--8--8--8--|-10-10-10-10-10-10-10-10-|
E||-------------------------|-8--8--8--8--8--8--8--8--|

e|-----------------|-----------------|-------------------------|
b|-----------------|-----------------|-------------------------|
G|-----------------|-----------------|-------------------------|
D|-----------------|-----------------|-10-10-10-10-10-10-10-10-|
A|-7-7-7-7-7-7-7-7-|-7-7-7-7-7-7-7-7-|-8--8--8--8--8--8--8--8--|
E|-5-5-5-5-5-5-5-5-|-5-5-5-5-5-5-5-5-|-------------------------|

e|------------------|-------------------------|-------------------------||
b|------------------|-------------------------|-------------------------||
G|-9-9-9-9-9-9-9-9--|-14-14-14-14-14-14-14-14-|-14-14-14-14-14-14-14-14-||
D|-7-7-7-7-7-7-7-7--|-14-14-14-14-14-14-14-14-|-14-14-14-14-14-14-14-14-||
A|------------------|-------------------------|-------------------------||
E|------------------|-------------------------|-------------------------||

 F
Standing in line
            C
To see the show tonight
               Am
And there's a light on Heavy glow




F             C
By the way I tried to say
     Am
I'd be there... waiting for 
F                         C
Dani the girl is singing songs to me 
               Am
Beneath the marquee... overload

||---------------------------------|---------------------------------| 
||---------------------------------|---------------------------------| 
||---------------------------------|---------------------------------|
||*--------------3-----------------|---------------3-----------------|
||*5---5---3h5---------3h5-----0h3-|-5---5---3h5---------3h5---------|
||---------------------------------|-----------------------------3h5-|
   1 . + . 2 . + . 3 . + . 4 . + .   1 . + . 2 . + . 3 . + . 4 . + . 

|---------------------------------|----------------------------------||    |---------------------------------|----------------------------------||
|---------------------------------|----------------------------------||
|---------------3-----------------|---------------------------------*||
|-5---5---3h5---------3h5-----0h3-|-5---5---0-0---5-------6-6-6-6-6-*||
|---------------------------------|----------------------------------||
  1 . + . 2 . + . 3 . + . 4 . + .   1 . + . 2 . + . 3 . + . 4 . + . 
Dm          Dm         Dm        Dm   
Steak Knife Card Shark Con Job   Boot Cut
Dm              Dm
Skin that flick,She's such a little DJ
Dm               Dm
Get there quick, By street but not the freeway
Dm               Dm
turn that trick, to make a little leeway
Dm             Dm
Beat that nic, But not the way that we play
Dm        Dm         Dm       Dm      
Dog Town  Blood Bath Rib Cage Soft Tail

   F                        C
Standing in line To see the show tonight
                      Dm
And there's a light on  Heavy glow
F                C
By the way I tried to say
       Am
I'd be there... waiting for


Black Jack Dope Dick
Pawn Shop Quick Pick

Kiss that Dyke
I know you want to hold one
Not on strike
But I'm about to bowl one
Bite that mic
I know you never stole one
Girls that like 
A story so I told one

Song Bird Main Line
Cash Back Hard top

Standing in line
To see the show tonight
And there's a light on 
Heavy glow
By the way I tried to say
I'd be there... waiting for 

Dani the girl
is singing songs to me 
Beneath the marquee... of her soul
By the way I tried to say 
I'd be there... waiting for

Chant

Standing in line
To see the show tonight
And there's a light on 
Heavy glow
By the way I tried to say
I'd be there... waiting for 

Dani the girl
is singing songs to me 
Beneath the marquee... of her soul
By the way I tried to say 
I know you 
Looking for 

Standing in line
To see the show tonight
And there's a light on 
Heavy glow
By the way I tried to say
I'd be there... waiting for

Outro:
  F   C    Dm   F    C    Am   Bb  Dm





Comments


Popular Red Hot Chili Peppers tabs & chords
Especially In Michigan 2 Bass Tabs
Ethiopia 2 Bass Tabs
Subterranean Homesick Blues 2 Bass Tabs
Dosed 1 Chords
Dani Caifornia Drum Tabs
Don't Forget Me Tabs
Fight Like A Brave Tabs
Get On Top Tabs
The Zephyr Song 1 Tabs
Tiny Dancer 2 Tabs


Song lyrics



↑ Back to top | Tablatures and chords are parodies/interpretations of the original songs. You may use it for private study, scholarship, research or language learning purposes only
© 2014 AZChords.com Contact us | Privacy policy | DMCA | Add/correct tabs | Request tabs | Top 50 tabs