» » »

Red Hot Chili Peppers, By Tha Way Bass tabs (ver.1)

Artists:  A B C D E F G H I J K L M N O P Q R S T U V W X Y Z # 

By Tha Way Bass tabs (ver.1)

Red Hot Chili Peppers Tabs
Rating:
0/5 (0 votes)
By Tha Way lessons Tabs too difficult? Try these video lessons and learn fast
                
Key:

S = slap
P = pop
T = triplet
q = quadroplet
p = pull off
h = hammer on


Intro
G|-17-17-17-17--17-17-17-17--17-17-17-17--17-17-17-17--7-7-7-7--7-7-7-7--7-7-7-7--7-7-7-7-|
D|-15-15-15-15--15-15-17-15--14-14-14-14--14-14-14-14--9-9-9-9--9-9-9-9--9-9-9-9--9-9-9-9-|
A|----------------------------------------------------------------------------------------|
D|----------------------------------------------------------------------------------------|

G|-7/17-17-17-17-17--17-17-17-17--12-12-12-12--12-12-12-12---------------------------|
D|-9/15-15-15-15-15--15-15-17-17--10-10-10-10--10-10-10-10--10-10-10-10--10-10-10-10-|
A|----------------------------------------------------------8--8--8--8---8--8--8--8--|
D|-----------------------------------------------------------------------------------|

G|--------------15-15-17-17\10-10-10-10-10--10-10-10-10--5-5-5-5--5-5-5-5-|
D|-10-10-10-10--13-13-14-14\8--x--x--x--x---x--x--x--x---x-x-x-x--x-x-x-x-|
A|-8--8--8--8-------------------------------------------------------------|
D|------------------------------------------------------------------------|

G|-2-2-2-2--2-2-2-2--2-2-2/17-17-17-17-17--17-17-17-17--19-19-19-19--19-19-19-19-|
D|-x-x-x-x--x-x-x-x--x-x-x/15-15-15-15-15--15-15-15-15--17-17-17-17--17-17-17-17-|
A|-------------------------------------------------------------------------------|
D|-------------------------------------------------------------------------------|

G|-21-21-21-21--21-21-21-21--21-21-21-21--21-21-21-21-|
D|-19-19-19-19--19-19-19-19--19-19-19-19--19-19-19-19-|
A|----------------------------------------------------|
D|----------------------------------------------------|


Verse (x4)
G|------------------------------------------------------------------------------|
D|---------3-----------------3----------------3---------------------------------|
A|-----3h5---3h5-0h3-----3h5---0h5--------3h5---3h5-0h3-----5-3-5--5/6-66-6T-66-|
D|-0-0---------------0-0----------0h5-0-0---------------0-0---------------------|
   S S S   P S   S   S S S   P S  S   S S S   P S   S   S S S S S  S  


Chorus 
G|------------------------------------------10-------------------|
D|-----7-7--10q--10q--12q--12q--12q--12q-12----12p10-12p10-------|
A|-8q-8-8--------------------------------------------------12p10-|
D|---------------------------------------------------------------|
      SPSP

G|--------------------------------------------------------|
D|-----7-7--10q--10q--7q--7q--10--10-10--10--10-10--10-10-|
A|-8q-8-8-------------------------------------------------|
D|--------------------------------------------------------|
      SPSP

Verse (x4)

Intro (x1)

Verse (x4)

Chorus

Guitar outro
            
Submit corrections

comments powered by Disqus
↑ Back to top | Red Hot Chili Peppers Bass for By Tha Way. Lyrics for acoustic guitar and electric guitar. Tablatures and chords are parodies/interpretations of the original songs. You may use it for private study, scholarship, research or language learning purposes only