» » »

Red Hot Chili Peppers, By The Way23 Bass tabs (ver.1)

Artists:  A B C D E F G H I J K L M N O P Q R S T U V W X Y Z # 

By The Way23 Bass tabs (ver.1)

Red Hot Chili Peppers Tabs
 Rating:
4/5 (4 votes)
By The Way23 lessons Tabs too difficult? Try these video lessons and learn fast
                BY THE WAY by The Chili's

Intro
Theres a bit before it but I dont know it!
G---------------------------|8/10-10-10-10-10-10-10-10-9-9-9-9-9-9-9-9---------------|
D---------------------------|-----------------------------------------7-7-7-7-7-7-7-7|
A 88888888-77777777---------|--------------------------------------------------------|
E------------------77777777-|--------------------------------------------------------|

Verse
G-----------------------------------------------------------------|
D------3----------------3----------------3------------------------|X4
A---3h5-3h5-5-33-5---3h5-3h5-5-33-5---3h5-3h5-5-33-5---3h5-555-3-5|
E0-0--------------0-0--------------0-0--------------0-0-----------|

Listen to the song to get the tunes
Chorus
G---------------------------------------------------------------|
D---------------------------------------------------------------|
A88888888-------------------------------------------------------|
E--------10-10-10-10-10-10-10-10-12-12--12--12--12--12--12--12--|

G---------------------------------------------|
D---------------------------------------------|
A88888888-------------------------------------|
E--------10-10-10-10-10-10-10-10-77777-8888888|
Then Play verse again x4

Then play the intro

Then: 
G-----------------------------------------------------------------|
D------3----------------3----------------3------------------------|
A---3h5-3h5-5-33-5---3h5-3h5-5-33-5---3h5-3h5-5-33-5---3h5-555-3-5|
E0-0--------------0-0--------------0-0--------------0-0-----------|

Then the Chorus
            
Submit corrections

comments powered by Disqus
↑ Back to top | Red Hot Chili Peppers Bass for By The Way23. Lyrics for acoustic guitar and electric guitar. Tablatures and chords are parodies/interpretations of the original songs. You may use it for private study, scholarship, research or language learning purposes only