» » »

Red Hot Chili Peppers, Breaking The Girl Bass tabs (ver.3)

Artists:  A B C D E F G H I J K L M N O P Q R S T U V W X Y Z # 

Breaking The Girl Bass tabs (ver.3)

Red Hot Chili Peppers Tabs
Rating:
0/5 (0 votes)
Breaking The Girl lessons Tabs too difficult? Try these video lessons and learn fast
                As usual no timing, I got a tab for this earlier and it was pretty bad.
I used the same template and fixed it.

Verse 1
+-----------+---------+---------+---------+-----------+-------+
|3:---6---6-|-----4-6-|---6---6-|---6-4---|---6---6---|---4-6-|
|4:-----6---|---6-----|-----6---|-------6-|-----6-----|-6-----|
+---4-------+-4-------+-4-------+-4-------+-4-------4-+-------+
[Play time 1-3	][Play on the forth time through		]
+---------+---------+---------+---------+---------+---------+
|---6---6-|---6---6-|---6---6-|---6---6-|---6---6-|---6---6-|
|-----6---|-----6---|-----6---|-----6---|-----6---|-----6---|
+-4-------+-4-------+-4-------+-4-------+-4-------+-4-------+

Bridge 1

+--------+-------+--------+-------+---------+--------+-------+-------+--------+-------+
|--------|-1-2-4-|--------|-------|---6---6-|------4-|-6-6-6-|-6-4---|--------|---1-4-|
|-2—-2-2-|-------|--------|-4-----|-----6---|---456--|-------|-----6-|-2--2-2-|-2-----|
+--------+-------+-2--2-2-+---2/6-+-4-------+-4------+-------+-------+--------+-------+

+--------+-------+-------+-------+-------+-------+
|--------|-------|-------|-------|-2-2-2-|-2---2/|
|--------|-------|-------|-----2-|-------|---2---|
+-2--2-2-+-2-2-6-+-0-0-0-+-0-0---+-------+-------+

Chorus1

+-------+-------+-------+-------+-------+-------+-------+-------+
|-------|-------|-------|-------|-------|-------|-------|-------|
|-------|-------|-------|-4-4-4-|-6-6-6-|-4-4-4-|-------|-------|
+-4-4-4-+-6-6-6-+-7-7-7-+-------+-------+-------+-7-7-7-+-6-6-6-+

                                                                
+-------+-------+-------+-------+-------+-------+-------+-------+
|-------|-------|-------|-------|-------|---8-6-|-8-6-8-|-9-8-6\|
|-------|-------|-------|-4-4-4-|/7-7-7-|-7-----|-------|-------|
+-4-4-4-+-6-6-6-+-7-7-7-+-------+-------+-------+-------+-------+


+-------+-------+-------+-------+-------+-------+-------+-------+
|-------|-------|-------|-------|-------|-------|-------|-------|
|-------|-------|-------|-4-4-4-|-6-6-6-|-4-4-4-|-------|-------|
+-4-4-4-+-6-6-6-+-7-7-7-+-------+-------+-------+-7-7-7-+-6-6-6-+

+-------+-------+-------+-------+-------+-------+-------+-------+
|-------|-------|-------|-------|-------|-------|-------|-------|
|-------|-------|-------|-4-4-4-|/7-7-7-|-7-7-7-|-7-7-7-|-6-6-6-|
+-4-4-4-+-6-6-6-+-7-7-7-+-------+-------+-------+-------+-------+

Verse 2

+-----------+---------+---------+---------+-----------+-------+
|3:---6---6-|-----4-6-|---6---6-|---6-4---|---6-------|---4-6-|
|4:-----6---|---6-----|-----6---|-------6-|-----------|-6-----|
+---4-------+-4-------+-4-------+-4-------+-4-------4-+-------+
[Play time 1-3	][Play on the forth time through		]
+---------+---------+---------+---------+---------+---------+
|---6---6-|---6---6-|---6---6-|---6---6-|---6---6-|---6---6-|
|-----6---|-----6---|-----6---|-----6---|-----6---|-----6---|
+-4-------+-4-------+-4-------+-4-------+-4-------+-4-------+

Bridge 2

+--------+-------+--------+-------+---------+-------+-------+-------+--------+-------+
|--------|-1-2-4-|--------|-------|---6---6-|-----4-|-6-6-6-|-464---|--------|-1-2-4-|
|-2—-2-2-|-------|--------|-4-----|-----6---|---6---|-------|-----6-|-2--2-2-|-------|
+--------+-------+-2--2-2-+---2/6-+-4-------+-4-----+-------+-------+--------+-------+

+--------+-------+-------+-------+-------+---------+
|--------|-------|-------|-------|-------|---------|
|--------|-------|-------|-------|/7-7-7-|-7---7/\-|
+-2--2-2-+-2-2-6-+-0-0-0-+-0-0-7-+-------+---7-----+

Chorus 2

+-------+-------+-------+-------+-------+-------+-------+-------+
|-------|-------|-------|-------|-------|-------|-------|-------|
|-------|-------|-------|-4-4-4-|-6-6-6-|-4-4-4-|-------|-------|
+-4-4-4-+-6-6-6-+-7-7-7-+-------+-------+-------+-7-7-7-+-6-6-6-+

                                                                
+-------+-------+-------+-------+-------+-------+-----6-+-------+
|-------|-------|-------|-------|-------|---8-6-|-8-9---|-9-8-6\|
|-------|-------|-------|-4-4-4-|/7-7-7-|-7-----|-------|-------|
+-4-4-4-+-6-6-6-+-7-7-7-+-------+-------+-------+-------+-------+


+-------+-------+-------+-------+-------+-------+-------+-------+
|-------|-------|-------|-------|-------|-------|-------|-------|
|-------|-------|-------|-4-4-4-|-6-6-6-|-4-4-4-|-------|-------|
+-4-4-4-+-6-6-6-+-7-7-7-+-------+-------+-------+-7-7-7-+-6-6-6-+

+-------+-------+-------+-------+-------+-------+-------+-------+
|-------|-------|-------|-------|-------|-------|-------|-------|
|-------|-------|-------|-4-4-4-|/7-7-7-|-7-7-7-|-7-7-7-|-6-6-6-|
+-4-4-4-+-6-6-6-+-7-7-7-+-------+-------+-------+-------+-------+

Interlude
				    X8
+-------+-------+-------+-------+
|-------|-------|-------|-------|
|-------|-------|-------|-2-2-2-|
+-4-424-+---024-+---424-+-------+









Final Chorus/Outro

+-------+-------+-------+-------+-------+-------+-------+-------+
|-------|-------|-------|-------|-------|-------|-------|-------|
|-------|-------|-------|-4-4-4-|-6-6-6-|-4-4-4-|-------|-------|
+-4-4-4-+-6-6-6-+-7-7-7-+-------+-------+-------+-7-7-7-+-6-6-6-+

                                                                
+-------+-------+-------+-------+-------+-------+---6---+-------+
|-------|-------|-------|-------|-------|---6-8-|-9---9-|-8-9-8\|
|-------|-------|-------|-4-4-4-|/7-7-7-|-7-----|-------|-------|
+-4-4-4-+-6-6-6-+-7-7-7-+-------+-------+-------+-------+-------+

+-------+-------+-------+-------+-------+-------+-------+----------+
|-------|-------|-------|-------|-------|-6-6-6-|-8-8-8-|-11-11-11\|
|-------|-------|-------|-4-4-4-|-6-6-6-|-------|-------|----------|
+-4-4-4-+-6-6-6-+-7-7-7-+-------+-------+-------+-------+----------+
                                                hammer most of these  
+-------+-------+-------+-------+-------+--------+--------+--------+
|-------|-------|-------|-------|-------|---6-68-|-898686-|--68986-|
|-------|-------|-------|-4-4-4-|/7-7-7-|-7--7---|--------|--------|
+-4-4-4-+-6-6-6-+-7-7-7-+-------+-------+--------+--------+--------+

+-------+-------+-------+-------+-------+-------+-------+----------+
|-------|-------|-------|-------|-------|-6-6-6-|-8-8-8-|-11-11-11/|
|-------|-------|-------|-4-4-4-|-6-6-6-|-------|-------|----------|
+-4-4-4-+-6-6-6-+-7-7-7-+-------+-------+-------+-------+----------+

+-13-13-13-+-13-13-13-+----------+----------+----------+----------+----------+
|----------|----------|-13-13-13-|-11-11-11-|-14-14-14-|-14-14-14-|-14-13-11-|
|----------|----------|----------|----------|----------|----------|----------|
+----------+----------+----------+----------+----------+----------+----------+
   H  P
+------------+
|-9-11-9-----|
|--------11\-|
+------------+

+-------+-------+-------+-------+-------+-------+-------+-------+
|-------|-------|-------|-------|-------|-------|-------|-------|
|-------|-------|-------|-4-4-4-|-6-6-6-|-4-4-4-|-------|-------|
+-4-4-4-+-6-6-6-+-7-7-7-+-------+-------+-------+-7-7-7-+-6-6-6-+

+-------+-------+-------+-------+-------+-------+-------+-6-----+
|-------|-------|-------|-------|-------|---6-8-|-9-8-9-|---9-8\|
|-------|-------|-------|-4-4-4-|/7-7-7-|-7-----|-------|-------|
+-4-4-4-+-6-6-6-+-7-7-7-+-------+-------+-------+-------+-------+

+-------+-------+-------+-------+-------+-------+-------+----------+
|-------|-------|-------|-------|-------|-6-6-6-|-8-8-8-|-11-11-11/|
|-------|-------|-------|-4-4-4-|-6-6-6-|-------|-------|----------|
+-4-4-4-+-6-6-6-+-7-7-7-+-------+-------+-------+-------+----------+

+-------+-------+-------+-------+-------+-------+-------+-------+
|-------|-------|-------|-------|-------|-------|-------|-------|
|-------|-------|-------|-4-4-4-|/7-7-7-|-4-5-7-|-4-5-7-|-5-4/--|
+-4-4-4-+-6-6-6-+-7-7-7-+-------+-------+-------+-------+-------+

H = HAMMER ON   \  = SLIDE DOWN TO FRET
P = PULL OFF    /  = SLIDE UP TO FRET
            

comments powered by Disqus
↑ Back to top | Red Hot Chili Peppers Bass for Breaking The Girl. Lyrics for acoustic guitar and electric guitar. Tablatures and chords are parodies/interpretations of the original songs. You may use it for private study, scholarship, research or language learning purposes only