» » »

Red Hot Chili Peppers, Breaking The Girl Bass tabs (ver.1)

Artists:  A B C D E F G H I J K L M N O P Q R S T U V W X Y Z # 

Breaking The Girl Bass tabs (ver.1)

Red Hot Chili Peppers Tabs
 Rating:
4/5 (4 votes)
Breaking The Girl lessons Tabs too difficult? Try these video lessons and learn fast
                ----------------------------------------------------------------------------
		Breaking the girl-Red hot chili peppers
----------------------------------------------------------------------------


Tuning: 1/2 step down
Im submitting this tab because the song is played in E flat
its very similar to the other versions, but there are a few differences

Intro/verse
G|--------------------------------------------------------------------------|
D|---7---7--------7----7---7----7-5------7---7-------5----7---7----7---7----|
A|-----7------7-9--------7----------7------7---7---7--------7--------7------|
E|-5--------5--------5--------5--------5---------5------5--------5----------|
after 6th time
G|--------------------|
D|---7---7---7---7----|
A|-----7-------7------|
E|-5-------5----------|

Pre chorus
G|------------------------------------------------------------------|
D|--------2-3-5--------------7---7-------5-7-7-7-77-5---------------|
A|-3--3-3------------5---5-----7-----5h7--------------7-------------|
E|--------------3-33---3---5-------5--------------------------------|

G|------------------------------------------------------------------|
D|---------2-5---------------------------3-3-3-3-----3--------------|
A|-3--33-3----------5----------------0-3---------3h5----------------|
E|-------------3-33----3---1---1-1----------------------------------|

Chorus
G|--------------------------------------------------------------------------|
D|--------------------------------------------------------------------------|
A|-0-0-0--2-2-2--3-3-3--5-5-5--7-7-7--5-5-5--3-3-3--0-0-0--2-2-2--3-3-3-----|
E|--------------------------------------------------------------------------|

G|--------------------------------------------------------------------------|
D|-----------------9-7-9-7-9-10-9-7-----------------------------------------|
A|-5-5-5-/8--8-8-8-------------------0-0-0--2-2-2--3-3-3--5-5-5--7-7-7------|
E|--------------------------------------------------------------------------|

G|--------------------------------------------------------------------------|
D|--------------------------------------------------------------------------|
A|-5-5-5--3-3-3--2-2-2--0-0-0--2-2-2--3-3-3--5-5-5-/8-88-8-8-8-8---8-7---7--|
E|---------------------------------------------------------------8-----7----|

interlude break
G|------------------------------------|
D|---7---7----7---7----7---7----------|give the C a good slappin
A|-----7--------7--------7----3-3-3---|
E|-5--------5--------5----------------|

Basically version 2 is spot on with his chorus fills and outro so im not
 going to copy it. But just a few notes difference in other spots

| /  slide up
| \  slide down
| h  hammer-on
| p  pull-off
| ~  vibrato
| +  harmonic
| x  Mute note
============================================================================
            
Submit corrections

comments powered by Disqus
↑ Back to top | Red Hot Chili Peppers Bass for Breaking The Girl. Lyrics for acoustic guitar and electric guitar. Tablatures and chords are parodies/interpretations of the original songs. You may use it for private study, scholarship, research or language learning purposes only