>
 >
Blackeyed Blonde

Blackeyed Blonde Guitar Tabs

Red Hot Chili Peppers - Blackeyed Blonde chords, tabs, tablatures, lyrics

Guitar lessons | Add/correct | Request | Top 50 tabs Artists:  A B C D E F G H I J K L M N O P Q R S T U V W X Y Z 0-9

Blackeyed Blonde Guitar Tabs – Red Hot Chili Peppers

CD, Sheet music, Poster

Do you like Blackeyed Blonde? Share with your friends now
Bass TabsBass Tabs v2Bass Tabs v3TabsTabs v2



Intro:

                                    Press string against
                                    pick-up.   
e-|------------------------------|-------------------------------------|-
B-|------------------------------|-------------------------------------|-
G-|------------(Rest)------------|-------------------------------------|-
D-|------------------------------|-------------------------------------|-
A-|------------------------------|-------------------------------------|-
E-|------------------------------|--x-x-x-x-x-x-x-x--------------------|-
                           (x5)     


e-|------------------------------|------------------------------|-
B-|------------------------------|------------------------------|-
G-|------------(Rest)------------|------------(Rest)------------|-
D-|------------------------------|------------------------------|-
A-|------------------------------|------------------------------|-
E-|------------------------------|------------------------------|-




Verse:



e-|-----------------------------|-----------------------------|-
B-|--6--x-x-6--x-6--6--x-x-6----|--6--x-x-6--x-6--6--x-x-6----|-
G-|--5--x-x-5--x-5--5--x-x-5----|--5--x-x-5--x-5--5--x-x-5----|-
D-|--4--x-x-4--x-4--4--x-x-4----|--4--x-x-4--x-4--4--x-x-4----|-
A-|--5--x-x-5--x-5--5--x-x-5----|--5--x-x-5--x-5--5--x-x-5----|-
E-|-----------------------------|-----------------------------|-


e-|-----------------------------|-----------------------------|-
B-|--6--x-x-6--x-6--6--x-x-6----|--6--------------------------|-
G-|--5--x-x-5--x-5--5--x-x-5----|--5--------------------------|-
D-|--4--x-x-4--x-4--4--x-x-4----|--4--------------------------|-
A-|--5--x-x-5--x-5--5--x-x-5----|--5--------------------------|-
E-|-----------------------------|-----------------------------|-


e-||-----------------------------|-----------------------------||-
B-||--6--x-x-6--x-6--6--x-x-6----|--6--x-x-6--x-6--6--x-x-6----||-
G-||'-5--x-x-5--x-5--5--x-x-5----|--5--x-x-5--x-5--5--x-x-5---'||-
D-||'-4--x-x-4--x-4--4--x-x-4----|--4--x-x-4--x-4--4--x-x-4---'||-
A-||--5--x-x-5--x-5--5--x-x-5----|--5--x-x-5--x-5--5--x-x-5----||-
E-||-----------------------------|-----------------------------||-
                                                          (x4)



Chorus:



e-|-----------------------------------|-----------------------------------|-
B-|--x-x-x-x-x-x-x-x---)--------------|-----------------------------------|-
G-|--x-x-x-x-x-x-x-x--5---------------|-----------------------------------|-
D-|--x-x-x-x-x-x-x-x-----x-5-x-5h7----|--(7)--x-x-x-x-x-x-x-x--x--5--5----|-
A-|-----------------------------------|-----------------------------------|-
E-|-----------------------------------|-----------------------------------|-


e-|-----------------------------------|----------------------------------|-
B-|-----------------------------------|------------------------)---------|-
G-|-----------------------------------|-----------------------7----------|-
D-|--x-x-x-x-x-x-x-x--x--5--5----5h7--|--------5-5-5-5-------------------|-
A-|----------------------------7------|----------------------------------|-
E-|-----------------------------------|----------------------------------|-


e-|-----------------------------------|-----------------------------------|-
B-|--x-x-x-x-x-x-x-x---)--------------|-----------------------------------|-
G-|--x-x-x-x-x-x-x-x--5---------------|-----------------------------------|-
D-|--x-x-x-x-x-x-x-x-----x-5-x-5h7----|--(7)--x-x-x-x-x-x-x-x--x--5--5----|-
A-|-----------------------------------|-----------------------------------|-
E-|-----------------------------------|-----------------------------------|-


e-|-----------------------------------|-------------------------------|-
B-|-----------------------------------|-------------------4------5----|-
G-|-----------------------------------|-------------------3------4----|-
D-|--x-x-x-x-x-x-x-x--x--5--5----5h7--|--------5-5-5-5----2------3----|-
A-|----------------------------7------|-------------------3------4----|-
E-|-----------------------------------|-------------------------------|-




Verse:



e-|-----------------------------|-----------------------------|-
B-|--6--x-x-6--x-6--6--x-x-6----|--6--x-x-6--x-6--6--x-x-6----|-
G-|--5--x-x-5--x-5--5--x-x-5----|--5--x-x-5--x-5--5--x-x-5----|-
D-|--4--x-x-4--x-4--4--x-x-4----|--4--x-x-4--x-4--4--x-x-4----|-
A-|--5--x-x-5--x-5--5--x-x-5----|--5--x-x-5--x-5--5--x-x-5----|-
E-|-----------------------------|-----------------------------|-


e-|-----------------------------|-----------------------------|-
B-|--6--x-x-6--x-6--6--x-x-6----|--6--------------------------|-
G-|--5--x-x-5--x-5--5--x-x-5----|--5--------------------------|-
D-|--4--x-x-4--x-4--4--x-x-4----|--4--------------------------|-
A-|--5--x-x-5--x-5--5--x-x-5----|--5--------------------------|-
E-|-----------------------------|-----------------------------|-


e-||-----------------------------|-----------------------------||-
B-||--6--x-x-6--x-6--6--x-x-6----|--6--x-x-6--x-6--6--x-x-6----||-
G-||'-5--x-x-5--x-5--5--x-x-5----|--5--x-x-5--x-5--5--x-x-5---'||-
D-||'-4--x-x-4--x-4--4--x-x-4----|--4--x-x-4--x-4--4--x-x-4---'||-
A-||--5--x-x-5--x-5--5--x-x-5----|--5--x-x-5--x-5--5--x-x-5----||-
E-||-----------------------------|-----------------------------||-
                                                          (x4)



Chorus:



e-|-----------------------------------|-----------------------------------|-
B-|--x-x-x-x-x-x-x-x---)--------------|-----------------------------------|-
G-|--x-x-x-x-x-x-x-x--5---------------|-----------------------------------|-
D-|--x-x-x-x-x-x-x-x-----x-5-x-5h7----|--(7)--x-x-x-x-x-x-x-x--x--5--5----|-
A-|-----------------------------------|-----------------------------------|-
E-|-----------------------------------|-----------------------------------|-


e-|-----------------------------------|------------------------)---------|-
B-|-----------------------------------|-----------------------7)---------|-
G-|-----------------------------------|-----------------------7----------|-
D-|--x-x-x-x-x-x-x-x--x--5--5----5h7--|--------5-5-5-5-------------------|-
A-|----------------------------7------|----------------------------------|-
E-|-----------------------------------|----------------------------------|-


e-|------------------------------------|-----------------------------------|-
B-|-------x-x-x-x-x-x---)--------------|-----------------------------------|-
G-|-------x-x-x-x-x-x--5---------------|-----------------------------------|-
D-|--5h7--x-x-x-x-x-x-----x-5-x-5h7----|--(7)--x-x-x-x-x-x-x-x--x--5--5----|-
A-|------------------------------------|-----------------------------------|-
E-|------------------------------------|-----------------------------------|-


e-|-----------------------------------|-----------------------------------|-
B-|-----------------------------------|-----------------------------------|-
G-|-----------------------------------|-----------------------------------|-
D-|--x-x-x-x-x-x-x-x--x--5--5----5h7--|--------5-5-5-5--------------------|-
A-|----------------------------7------|-----------------------------------|-
E-|-----------------------------------|-----------------------------------|-




Before Solo:



e-|------------------------------|-
B-|--6----6----6----6----6----6--|-
G-|--5----5----5----5----5----5--|-
D-|--4----4----4----4----4----4--|-
A-|--5----5----5----5----5----5--|-
E-|------------------------------|-




Solo:


               Let Ring                           Let Ring  
e-|----------------------------------|----------------------------------|-
B-|------------10--------------------|------------12--------------------|-
G-|--10-------(10)-------------------|--10-------(10)-------------------|-
D-|----------------------------------|----------------------------------|-
A-|----------------------------------|----------------------------------|-
E-|----------------------------------|----------------------------------|-

                                      
             Let Ring                 w/bar
e-|--------------------------------|------------------------------------|-
B-|----------13------------10\8----|--8\.../----(8)------------8--------|-
G-|--10-----(10)-----------10\8----|--8\.../----(8)------------8--------|-
D-|--------------------------------|----0.5-----------------------------|-
A-|--------------------------------|------------------------------------|-
E-|--------------------------------|------------------------------------|-


e-|--------------------------------|------------------------------------|-
B-|--7--------------------8--------|--7---------------------------------|-
G-|--7--------------------8--------|--7------------------------7\4------|-
D-|--------------------------------|------------------------------------|-
A-|--------------------------------|------------------------------------|-
E-|--------------------------------|------------------------------------|-
     
                                     
                                     Let Ring  
e-|--------------------(0)--------|--(0)--------------------------------|-
B-|-----------3-------------------|--(3)--------------------------------|-
G-|--4----------------------------|--(4)--------------------------------|-
D-|-------------------------------|-------------------------------------|-
A-|-------------------------------|-------------------------------------|-
E-|-------------------------------|-------------------------------------|-




Interlude:


     Gtr. 2
e-|-------------------------------|--------------------------------------|-
B-|-------------------------------|--------------------------------------|-
G-|--/8~~~~~~~~~------------------|----------------(Rest)----------------|-
D-|-------------------------------|--------------------------------------|-
A-|-------------------------------|--------------------------------------|-
E-|-------------------------------|--------------------------------------|-


     Gtr. 1
e-|-------------------------------------|---------------------------------|-
B-|----------------4--------------------|--------------------------)------|-
G-|----------------3--------------------|--------------------x-x--8-------|-
D-|----------------2--------------------|----------------------------8----|-
A-|----------------3--------------------|---------------------------------|-
E-|-------------------------------------|---------------------------------|-


e-|-------------------------------------|----------------------------------|-
B-|-------------------------------------|-------------------------)--------|-
G-|-------------------------------------|-----------------------10---------|-
D-|--x-x-x-x-x-x-x-x--x--8--8-----8h10--|--------8-8-8-8-------------------|-
A-|----------------------------10-------|----------------------------------|-
E-|-------------------------------------|----------------------------------|-


e-|-------------------------------------|----------------------------------|-
B-|----------------4--------------------|-------)---------------------)----|-
G-|----------------3--------------------|--10--8--------------8--10--8-----|-
D-|----------------2--------------------|----------10------x---------------|-
A-|----------------3--------------------|----------------------------------|-
E-|-------------------------------------|----------------------------------|-


e-|-------------------------------------|----------------------------------|-
B-|-------------------------------------|----------------------------------|-
G-|-------------------------------------|----------------------------------|-
D-|--x-x-x-x-x-x-x-x--x--8--8-----8h10--|--------8-8-8-8-------------------|-
A-|----------------------------10-------|----------------------------------|-
E-|-------------------------------------|----------------------------------|-




Verse:



e-|-----------------------------|-----------------------------|-
B-|--6--x-x-6--x-6--6--x-x-6----|--6--x-x-6--x-6--6--x-x-6----|-
G-|--5--x-x-5--x-5--5--x-x-5----|--5--x-x-5--x-5--5--x-x-5----|-
D-|--4--x-x-4--x-4--4--x-x-4----|--4--x-x-4--x-4--4--x-x-4----|-
A-|--5--x-x-5--x-5--5--x-x-5----|--5--x-x-5--x-5--5--x-x-5----|-
E-|-----------------------------|-----------------------------|-


e-|-----------------------------|-----------------------------|-
B-|--6--x-x-6--x-6--6--x-x-6----|--6--------------------------|-
G-|--5--x-x-5--x-5--5--x-x-5----|--5--------------------------|-
D-|--4--x-x-4--x-4--4--x-x-4----|--4--------------------------|-
A-|--5--x-x-5--x-5--5--x-x-5----|--5--------------------------|-
E-|-----------------------------|-----------------------------|-


e-||-----------------------------|-----------------------------||-
B-||--6--x-x-6--x-6--6--x-x-6----|--6--x-x-6--x-6--6--x-x-6----||-
G-||'-5--x-x-5--x-5--5--x-x-5----|--5--x-x-5--x-5--5--x-x-5---'||-
D-||'-4--x-x-4--x-4--4--x-x-4----|--4--x-x-4--x-4--4--x-x-4---'||-
A-||--5--x-x-5--x-5--5--x-x-5----|--5--x-x-5--x-5--5--x-x-5----||-
E-||-----------------------------|-----------------------------||-
                                                          (x5)



e-|------------------------------|------------------------------|-
B-|------------------------------|------------------------------|-
G-|------------------------------|------------(Rest)------------|-
D-|------------------------------|------------------------------|-
A-|--3--5----3--5----------------|------------------------------|-
E-|------------------------------|------------------------------|-





Comments


Popular Red Hot Chili Peppers tabs & chords
Dani California 2 Bass Tabs
Good Time Boys 6 Bass Tabs
Spell Correctly Bass Tabs
Under The Bridge Chords
Californication Drum Tabs
By The Way Live Tabs
Road Trippin' 2 Tabs
Special Secret Song Inside Tabs
Under The Bridge 1 Tabs
Under The Bridge Live Tabs


Song lyrics



↑ Back to top | Tablatures and chords are parodies/interpretations of the original songs. You may use it for private study, scholarship, research or language learning purposes only
© 2014 AZChords.com Contact us | Privacy policy | DMCA | Add/correct tabs | Request tabs | Top 50 tabs