» » »

Red Hot Chili Peppers, Black Eyed Blonde Bass tabs (ver.2)

Artists:  A B C D E F G H I J K L M N O P Q R S T U V W X Y Z # 

Black Eyed Blonde Bass tabs (ver.2)

Red Hot Chili Peppers Tabs
 Rating:
4/5 (4 votes)
Black Eyed Blonde lessons Tabs too difficult? Try these video lessons and learn fast
                (2)
Blackeyed Blonde
By The Red Hot Chili peppers;
Anthony KIEDIS, Flea, Hillel SLOVAK, Cliff MARTINEZ


Intro:
G-|-------------------------------------5--5-------------|
D-|------------------------------------------------------|
A-|-3h5--3h5----3h5--3h5----3h5--3h5----------3h5--3h5---|
E-|------------------------------------------------------|

Verse 1(slap):
G-|-------------7-5---4-5-------------7-5---4-5---|
D-|-----x---------------------x-------------------|
A-|-3h5x-3h5--------------3h5x-3h5----------------|
E-|-----------x----xx---------------x----xx-------|
    T    T    T P P T P P T    T    T P P T P P

G-|-------------7-5---4-5---------|
D-|-----x-------------------------|
A-|-3h5x-3h5----------------5-----|
E-|-----------x----xx-----x-------|
    T    T    T P P T P P T T

G-|-------------7-5---4-5-------------7-5---4-5---|
D-|-----x---------------------x-------------------|
A-|-3H5x-3H5--------------3H5x-3H5----------------|
E-|-----------x----xx---------------x----xx-------|4x
    T    T    T P P T P P T    T    T P P T P P

Chorus 1:
G-|-----------------------------------------------|
D-|-----5h7----------------5h7-5-5-x5h7-----------|
A-|----------7-5-------------------------7-5------|
E-|-3h5----------7-5---3h5-------------------7-5--|2x

Verse 2(slap):
G-|-------------7-5---4-5-------------7-5---4-5---|
D-|-----x---------------------x-------------------|
A-|-3h5x-3h5--------------3h5x-3h5----------------|
E-|-----------x----xx---------------x----xx-------|
    T    T    T P P T P P T    T    T P P T P P

G-|-------------7-5---4-5---------|
D-|-----x-------------------------|
A-|-3h5x-3h5----------------5-----|
E-|-----------x----xx-----x-------|
    T    T    T P P T P P T T

G-|-------------7-5---4-5-------------7-5---4-5---|
D-|-----x---------------------x-------------------|
A-|-3H5x-3H5--------------3H5x-3H5----------------|
E-|-----------x----xx---------------x----xx-------|4x
    T    T    T P P T P P T    T    T P P T P P

Chorus 2:
G-|-----------------------------------------------|
D-|-----5h7----------------5h7-5-5-x5h7-----------|
A-|----------7-5-------------------------7-5------|
E-|-3h5----------7-5---3h5-------------------7-5--|2x

Interlude:
G-|-------------7-5---4-5-------------7-5---4-5---|
D-|-----x---------------------x-------------------|
A-|-3h5x-3h5--------------3h5x-3h5----------------|
E-|-----------x----xx---------------x----xx-------|3x
    T    T    T P P T P P T    T    T P P T P P

G-|-------------7-5---4-5----------------------|
D-|-----x--------------------------------------|
A-|-3h5x-3h5-----------------5--5--5--5--5--5--|
E-|-----------x----xx-----x--------------------|1x
    T    T    T P P T P P T  T  T  T  T  T  T

Verse 3:
G-|-------------7-5---4-5-------------7-5---4-5---|
D-|-----x-----------------------------------------|
A-|-3h5x-3h5--------------3h5x-3h5----------------|
E-|-----------x----xx---------------x----xx-------|4X
    T    T    T P P T P P T    T    T P P T P P    

Chorus 3:
G-|--------------------------------------------------------|
D-|-----8h10------------------8h10--8-8-x-8h10-------------|
A-|-----------10-8-----------------------------10-8--------|
E-|-6h8------------10-8---6h8-----------------------10-8---|

Verse 4:
G-|-------------7-5---4-5-------------7-5---4-5---|
D-|-----x-----------------------------------------|
A-|-3h5x-3h5--------------3h5x-3h5----------------|
E-|-----------x----xx---------------x----xx-------|
    T    T    T P P T P P T    T    T P P T P P

G-|-------------7-5---4-5---------|
D-|-------------------------------|
A-|-3h5x-3h5----------------5-----|
E-|-----------x----xx-----x-------|
    T    T    T P P T P P T T

G-|-------------7-5---4-5-------------7-5---4-5---|
D-|-----------------------------------------------|
A-|-3H5x-3H5--------------3H5x-3H5----------------|
E-|-----------x----xx---------------x----xx-------|5x
    T    T    T P P T P P T    T    T P P T P P

End (last notes):
G-|-------------|
D-|-------------|
A-|-3h5--3h5----|
E-|-------------|

good luck!
please rate this tab.
(if you find a few mistake, send me the correction!)
            
Submit corrections

comments powered by Disqus
↑ Back to top | Red Hot Chili Peppers Bass for Black Eyed Blonde. Lyrics for acoustic guitar and electric guitar. Tablatures and chords are parodies/interpretations of the original songs. You may use it for private study, scholarship, research or language learning purposes only